Tweeter and the Monkey Man by Headstones Ukulele Chords

Posted on

If you are looking for Tweeter and the Monkey Man ukulele chords, you already come to the best site.
You can play versatile instrument Tweeter and the Monkey Man using ukulele or guitar.
This song by Headstones can also be played by that instruments.
=

Tweeter and the Monkey Man chords has rhythm and included in Picture of Health (1993) album.
You can also find another musical style, including jazz ukulele chords, country music ukulele chords, pop ukulele chords, world music ukulele chords, and rock ukulele chords here.

Tweeter and the Monkey Man by Headstones Ukulele Chords

Artist-Headstones
Song-Tweeter And The Monkey Man
Album-Pitcure Of Health 1993
Guitarists- Trent Carr
origonal Words And Score By-The Travelling Willburys
Sung By-Hugh Dillion of the headstones

()-harmonic
/-slide
b-bend


|---------2-2-2-2--------------------|
|---------3-3-3-3-2-2-2-2------------|
|-1-1-1-1-2-2-2-2-2-2-2-2-1-1-1-1----|
|-2-2-2-2-0-0-0-0-2-2-2-2-2-2-2-2----|
|-2-2-2-2---------0-0-0-0-2-2-2-2----|
|-0-0-0-0-----------------0-0-0-0----|

Tweeter and the monkey man were hard up for cash
They Stayed up all night selling cocaine and hash.
To an undercover sop who had a sister named Jan.
For Reasons unexplained she loved the monkey man
Tweeter was a boy scout coz he went to vietnam
Found out the hard way nobody gives a damn
They knew that they found freedom just across the jersey line
So they hopped into a stolen car took highway 99

And the walls came down all the way to hell
Never saw them when they’re standing
Never saw them when they fell


|----------------------------------|
|----------------------------------|
|1-1-1-1-1-1-1-1-1-1-1-1-1---------|
|2-2-2-2-2-2-2-2-2-2-2-2-2---------|
|2-2-2-2-2-2-2-2-2-2-2-2-2---------|
|0-0-0-0-0-0-0-0-0-0-0-0-0--7--/--2|

same chords as before
The undercover cop never liked the monkey man
Even back in highShcool wanted to see him in the can
Jan got married at fourteen to a rackateer named bill
She made secret plans to the monkey man from a mansion on the hill

It was out on Thunder Road, Tweeter at the wheel
Pulled into paradise, you could hear the tires squeal
It was Jan who’d told him many times “It was you to me who’d taught:
In Kingston everything’s legal as long as you don’t get caught”

And the walls came down
All the way to hell
Never saw them when they standin
Never saw them when they fell


|------------------------------|
|------------------------------|
|------------------------------|
|------5-----------------------|
|----5---7-5-7-----------------|
|--7---------------------------|


|----------------------------------|
|----------------------------------|
|1-1-1-1-1-1-1-1-1-1-1-1-1---------|
|2-2-2-2-2-2-2-2-2-2-2-2-2---------|
|2-2-2-2-2-2-2-2-2-2-2-2-2---------|
|0-0-0-0-0-0-0-0-0-0-0-0-0--7--/--2|

Some place by Riway prison they ran out of gas
The undercover cop cornered ’em, said “You didn’t think that this could last”
Jan jumped up out of bed said “There’s some place I gotta go”
She took the gun out of the drawer, and said “It’s best that you don’t know”
An ambulance rolled up, State Trooper close behind
Tweeter took his gun away and messed up his mind
The undercover cop was found face down in a field
The Monkey Man was on the bridge using Tweeter as a shield
And the walls came down
All the way to hell
Never saw them when they standin
Never saw them when they fell

guitar1 guitar2 A A A G


|--------------|------------------| x x x 3
|--------------|------------------| 2 2 2 2
|--------------|------------------| 2 2 2 0
|------5b------|-------10b--------| 2 2 2 0
|----5---7-5-7-|----10----12-10-12| 0 0 0 3
|--7-----------|-12---------------| x x x 3

same chords
The town of Jersey City is quieting down again
I’m sitting in a gambling club called The Lion’s Den
The TV set is blown up, every bit of it is gone
Ever since the night when they showed that the Monkey Man was on
Maybe I’ll go to Florida, get myself some sun
There ain’t no more opportunity here and everythings been done
Sometimes I think of Tweeter, sometimes I think of Jan
Sometimes I don’t think about nothin’ but the Monkey Man
And the walls came down
All the way to hell
Never saw them when they standin
Never saw them when they fell

To play the this songs, including Tweeter and the Monkey Man by Headstones by ukulele, the most important basic ukulele chords to learn are C chord, D chord, G chord, and Em chord.
These set you up to play a many of songs, and each of them is easy to master.

Leave a Reply

Your email address will not be published.