Under Huntress Moon by Pantera Ukulele Chords

Posted on

If you are looking for Under Huntress Moon ukulele chords, you have come to the right place.
You can play versatile instrument Under Huntress Moon using ukulele or guitar.
This song by Pantera can also be played by that instruments.
=

Under Huntress Moon chords has rhythm and included in Reinventing the Steel (2000) album.
You can also get other musical genres, including jazz ukulele chords, country music ukulele chords, pop ukulele chords, world music ukulele chords, and rock ukulele chords here.

Under Huntress Moon by Pantera Ukulele Chords

C R A D L E O F F I L T H

[-]
U N D E R H U N T R E S S M O O N

THORNOGRAPHY
(c) Roadrunner Records – 2006

Tune down one full step

Tempo 120 BPM
Time Signature 4/4


-----------------------------

PADDY MCMULLAN

Version 1.0
8th December 2008


-----------------------

Tablature Symbols Used:

P.M… – Palm Mute
p – Pull-Off
h – Hammer-On
(/) – Legato Slide (Blank space indicates length of slide)
– Slide Down to/Down From (Blank space indicates length of slide)
/ – Slide Up To/Up From (Blank space indicates length of slide)
( ) – Ghost Note/Tied Note/Implied Note
REST – Rest and sustain rest for duration of blank space
|_3_| – Triplet Notes
|___(1) – Ending 1/2/3 etc.

Intro 1.1: Guitar 1 with Heavy Distortion (Play once)

1 |__3___| |__3__| |___3____| |___3____|


||---------------------------------------------|
||---------------------------------------------|
||---------------------------------------------|
||--7--7-7-7--7--7--7--12--12--12--12--12--12--|
||--0--0-0-0--0--0--0--0---0---0---0---0---0---|
||---------------------------------------------|

2 |___3____| |_____3_____| |__3__| |___3___|


|-----------------------------------------------|
|-----------------------------------------------|
|-----------------------------------------------|
|--10--10--10--10--10--10-10-9--9--9--9--10--9--|
|--0---0---0---0---0---0--0--0--0--0--0--0---0--|
|-----------------------------------------------|

3 |__3___| |__3__| |___3____| |___3____|


|----------------------------------------------|
|----------------------------------------------|
|----------------------------------------------|
|--7--7-7-7--7--7--7--12--12--12--12--12--12 -|
|--0--0-0-0--0--0--0--0---0---0---0---0---0----|
|----------------------------------------------|

4 |__3___| |___3__| |__3__| |__3__|


|-----------------------------------------|
|-----------------------------------------|
|-----------------------------------------|
|-----------------------------------------|
|------------2 h 3--3/ 7---(7)--8 5--|
|--0--1-1-1---------1/ 5---(5)--6 3--|

P.M ….. …

5 |__3___| |__3__| |_____3____| |_____3_____|


|-------------------------------------------------|
|-------------------------------------------------|
|-------------------------------------------------|
|--7--7-7-7--7--7--7--12--12-12-12--12--12--12-12-|
|--0--0-0-0--0--0--0--0---0--0--0---0---0---0--0--|
|-------------------------------------------------|

6 |_____3____| |____3___| |___3__| |__3___|


|------------------------------------------------|
|------------------------------------------------|
|------------------------------------------------|
|--10--10-10-10--10--10--10--9--9-9-9--9--10--9--|
|--0---0--0--0---0---0---0---0--0-0-0--0--0---0--|
|------------------------------------------------|

7 |__3___| |__3__| |___3____| |___3____|


|----------------------------------------------|
|----------------------------------------------|
|----------------------------------------------|
|--7--7-7-7--7--7--7--12--12--12--12--12--12 -|
|--0--0-0-0--0--0--0--0---0---0---0---0---0----|
|----------------------------------------------|

8 |__3___| |___3__| |__3__| |__3__|


|-----------------------------------------|
|-----------------------------------------|
|-----------------------------------------|
|-----------------------------------------|
|------------2 h 3--3/ 7---(7)--8 5--|
|--0--1-1-1---------1/ 5---(5)--6 3--|

…….. …

9 |___3____| |___3____| |___3____| |___3____|


|--------------------------------------------------|
|--------------------------------------------------|
|--------------------------------------------------|
|--10--10--10--10--10--10--15--15--15--15--15--15--|
|--0---0---0---0---0---0---0---0---0---0---0---0---|
|--------------------------------------------------|

10|___3____| |___3____| |___3____| |___3____|


|--------------------------------------------------|
|--------------------------------------------------|
|--------------------------------------------------|
|--14--14--14--14--14--14--12--12--12--12--14--12--|
|--0---0---0---0---0---0---0---0---0---0---0---0---|
|--------------------------------------------------|

11|___3____| |___3____| |___3____| |___3____|


|---------------------------------------------------|
|---------------------------------------------------|
|---------------------------------------------------|
|--10--10--10--10--10--10--15--15--15--15--15--15 -|
|--0---0---0---0---0---0---0---0---0---0---0---0----|
|---------------------------------------------------|

12|__3___| |___3__| |__3__| |__3__|


|-----------------------------------------|
|-----------------------------------------|
|-----------------------------------------|
|-----------------------------------------|
|------------2 h 3--3/ 7---(7)--8 5--|
|--0--1-1-1---------1/ 5---(5)--6 3--|

…….. …

13|___3____| |___3____| |___3____| |___3____|


|--------------------------------------------------|
|--------------------------------------------------|
|--------------------------------------------------|
|--10--10--10--10--10--10--15--15--15--15--15--15--|
|--0---0---0---0---0---0---0---0---0---0---0---0---|
|--------------------------------------------------|

14|___3____| |___3____| |___3____| |___3____|


|--------------------------------------------------|
|--------------------------------------------------|
|--------------------------------------------------|
|--14--14--14--14--14--14--12--12--12--12--14--12--|
|--0---0---0---0---0---0---0---0---0---0---0---0---|
|--------------------------------------------------|

15|___3____| |___3____| |___3____| |___3____|


|---------------------------------------------------|
|---------------------------------------------------|
|---------------------------------------------------|
|--10--10--10--10--10--10--15--15--15--15--15--15 -|
|--0---0---0---0---0---0---0---0---0---0---0---0----|
|---------------------------------------------------|

16|__3___| |___3__| |__3__| |___3___|


|-------------------------------------------||
|-------------------------------------------||
|-------------------------------------------||
|-------------------------------------------||
|------------2 h 3--3/ 7---(7)--8 7 5--||
|--0--1-1-1---------1/ 5---(5)--6 5 3--||

…….. …

Note the different “tail” during the last bar

Intro 1.2: Guitar 2 with Heavy Distortion (Play once)

1 |__3___| |__3__| |____3_____| |___3____|


||-----------------------------------------------|
||-----------------------------------------------|
||-----------------------------------------------|
||--7--7-7-7--7--7--7--12-12-12--12--12--12--12--|
||--0--0-0-0--0--0--0--0--0--0---0---0---0---0---|
||-----------------------------------------------|

2 |___3____| |___3____| |___3___| |___3___|


|----------------------------------------------|
|----------------------------------------------|
|----------------------------------------------|
|--10--10--10--10--10--10--9--9-9-9--9--10--9--|
|--0---0---0---0---0---0---0--0-0-0--0--0---0--|
|----------------------------------------------|

3 |__3___| |__3__| |____3_____| |___3____|


|------------------------------------------------|
|------------------------------------------------|
|------------------------------------------------|
|--7--7-7-7--7--7--7--12--12-12-12--12--12--12 -|
|--0--0-0-0--0--0--0--0---0--0--0---0---0---0----|
|------------------------------------------------|

4 |__3___| |___3__| |__3__| |__3__|


|-----------------------------------------|
|-----------------------------------------|
|-----------------------------------------|
|-----------------------------------------|
|------------2 h 3--3/ 7---(7)--8 5--|
|--0--1-1-1---------1/ 5---(5)--6 3--|

…….. …

5 |__3___| |__3__| |_____3____| |_____3_____|


|-----------------------------------------------|
|-----------------------------------------------|
|-----------------------------------------------|
|--7--7-7-7--7--7--7--12--12-12-12--12--12--12--|
|--0--0-0-0--0--0--0--0---0--0--0---0---0---0---|
|-----------------------------------------------|

6 |____3___| |___3____| |___3__| |__3___|


|----------------------------------------------|
|----------------------------------------------|
|----------------------------------------------|
|--10--10--10--10--10--10--9--9-9-9--9--10--9--|
|--0---0---0---0---0---0---0--0-0-0--0--0---0--|
|----------------------------------------------|

7 |__3___| |__3__| |___3____| |___3____|


|----------------------------------------------|
|----------------------------------------------|
|----------------------------------------------|
|--7--7-7-7--7--7--7--12--12--12--12--12--12 -|
|--0--0-0-0--0--0--0--0---0---0---0---0---0----|
|----------------------------------------------|

8 |__3___| |___3__| |__3__| |__3__|


|-----------------------------------------|
|-----------------------------------------|
|-----------------------------------------|
|-----------------------------------------|
|------------2 h 3--3/ 7---(7)--8 5--|
|--0--1-1-1---------1/ 5---(5)--6 3--|

…….. …

9 |__3__| |__3__| |___3____| |___3____|


|--------------------------------------------|
|--------------------------------------------|
|--------------------------------------------|
|--7--7--7--7--7--7--12--12--12--12--12--12--|
|--0--0--0--0--0--0--0---0---0---0---0---0---|
|--------------------------------------------|

10|_____3____| |___3____| |__3__| |__3___|


|-----------------------------------------------|
|-----------------------------------------------|
|-----------------------------------------------|
|--10--10-10-10--10--10--10--9--9--9--9--10--9--|
|--0---0--0--0---0---0---0---0--0--0--0--0---0--|
|-----------------------------------------------|

11|___3__| |__3__| |___3____| |___3____|


|----------------------------------------------|
|----------------------------------------------|
|----------------------------------------------|
|--7--7-7-7--7--7--7--12--12--12--12--12--12 -|
|--0--0-0-0--0--0--0--0---0---0---0---0---0----|
|----------------------------------------------|

12|__3___| |___3__| |__3__| |__3__|


|-----------------------------------------|
|-----------------------------------------|
|-----------------------------------------|
|-----------------------------------------|
|------------2 h 3--3/ 7---(7)--8 5--|
|--0--1-1-1---------1/ 5---(5)--6 3--|

…….. …

13|__3__| |__3__| |___3____| |___3____|


|--------------------------------------------|
|--------------------------------------------|
|--------------------------------------------|
|--7--7--7--7--7--7--12--12--12--12--12--12--|
|--0--0--0--0--0--0--0---0---0---0---0---0---|
|--------------------------------------------|

14|____3_____| |___3____| |__3__| |___3____|


|-----------------------------------------------|
|-----------------------------------------------|
|-----------------------------------------------|
|--10--10-10-10--10--10--10--9--9--9--9--10--9--|
|--0---0--0--0---0---0---0---0--0--0--0--0---0--|
|-----------------------------------------------|

15|___3__| |__3__| |___3____| |___3____|


|----------------------------------------------|
|----------------------------------------------|
|----------------------------------------------|
|--7--7-7-7--7--7--7--12--12--12--12--12--12 -|
|--0--0-0-0--0--0--0--0---0---0---0---0---0----|
|----------------------------------------------|

16|__3___| |___3__| |__3__| |___3___|


|-------------------------------------------||
|-------------------------------------------||
|-------------------------------------------||
|-------------------------------------------||
|------------2 h 3--3/ 7---(7)--8 7 5--||
|--0--1-1-1---------1/ 5---(5)--6 5 3--||

…….. …

Note the different “tail” during the last bar

Post-Intro: Guitars 1 & 2 (Play once)

|___3___| |___3__| |___3___| |___3__|


||--------------------------------------------|
||--------------------------------------------|
||--------------------------------------------|
||--------------------------------------------|
||--8 7 5--5--5-5-5--8 7 5--5--5-5-5--|
||--6 5 3--3--3-3-3--6 5 3--3--3-3-3--|

|___3___| |___3___| |____3___| |____3___|


|------------------------------------------------|
|------------------------------------------------|
|------------------------------------------------|
|------------------------------------------------|
|--8 7 5--8 7 5--10 8 7--10 8 7--|
|--6 5 3--6 5 3--8 6 5--8 6 5--|

|___3___| |___3__| |___3___| |___3__|


|--------------------------------------------|
|--------------------------------------------|
|--------------------------------------------|
|--------------------------------------------|
|--8 7 5--5--5-5-5--8 7 5--5--5-5-5--|
|--6 5 3--3--3-3-3--6 5 3--3--3-3-3--|

|____3_____| |___3__| |___3__|


|---------------------------------------------||
|---------------------------------------------||
|---------------------------------------------||
|---------------------------------------------||
|--10--10-10-10--7--7-7-7--8--8-8-8--12-- --||
|--8---8--8--8---5--5-5-5--6--6-6-6--10-- --||

Verse: Guitars 1 & 2 (Play 4 times)

|___3__| |_____3____| |___3__| |_____3____|


||--------------------------------------------------|
||--------------------------------------------------|
||--------------------------------------------------|
||--------------------------------------------------|
||--4--4-4-4--4--(4/5)-- -4--4-4-4--4--(4/5)-- -|
||--2--2-2-2--2--(2/3)-- -2--2-2-2--2--(2/3)-- -|

…….. ……..

|___3__| |_____3____| |__3__| |____3___|


|-----------------------------------------------| |
|-----------------------------------------------| |
|-----------------------------------------------||
|-----------------------------------------------||
|--4--4-4-4--4--(4/5)-- / -8--8--8 5 / 7 5--| |
|--2--2-2-2--2--(2/3)-- / -6--6--6 3 / 5 3--| |

Chorus 1.1: Guitar 1 (Play once)

1 |__3__| |__3__| |___3____| |___3____|


||--------------------------------------------|
||--------------------------------------------|
||--------------------------------------------|
||--7--7--7--7--7--7--12--12--12--12--12--12--|
||--0--0--0--0--0--0--0---0---0---0---0---0---|
||--------------------------------------------|

2 |___3____| |___3____| |__3__| |___3__|


|---------------------------------------------|
|---------------------------------------------|
|---------------------------------------------|
|--10--10--10--10--10--10--9--9--9--9--10--9--|
|--0---0---0---0---0---0---0--0--0--0--0---0--|
|---------------------------------------------|

3 |__3__| |__3__| |___3____| |___3____|


|---------------------------------------------|
|---------------------------------------------|
|---------------------------------------------|
|--7--7--7--7--7--7--12--12--12--12--12--12 -|
|--0--0--0--0--0--0--0---0---0---0---0---0----|
|---------------------------------------------|

4 |__3___| |___3__| |__3__| |__3__|


|-----------------------------------------|
|-----------------------------------------|
|-----------------------------------------|
|-----------------------------------------|
|------------2 h 3--3/ 7---(7)--8 5--|
|--0--1-1-1---------1/ 5---(5)--6 3--|

…….. …

5 |__3__| |__3__| |___3____| |___3____|


|--------------------------------------------|
|--------------------------------------------|
|--------------------------------------------|
|--7--7--7--7--7--7--12--12--12--12--12--12--|
|--0--0--0--0--0--0--0---0---0---0---0---0---|
|--------------------------------------------|

6 |___3____| |___3____| |___3__| |___3__|


|----------------------------------------------|
|----------------------------------------------|
|----------------------------------------------|
|--10--10--10--10--10--10--9--9-9-9--9--10--9--|
|--0---0---0---0---0---0---0--0-0-0--0--0---0--|
|----------------------------------------------|

7 |__3__| |__3__| |___3____| |___3____|


|---------------------------------------------|
|---------------------------------------------|
|---------------------------------------------|
|--7--7--7--7--7--7--12--12--12--12--12--12 -|
|--0--0--0--0--0--0--0---0---0---0---0---0----|
|---------------------------------------------|

8 |__3___| |___3__| |__3__| |__3__|


|-----------------------------------------|
|-----------------------------------------|
|-----------------------------------------|
|-----------------------------------------|
|------------2 h 3--3/ 7---(7)--8 5--|
|--0--1-1-1---------1/ 5---(5)--6 3--|

…….. …

9 |___3____| |___3____| |___3____| |___3____|


|--------------------------------------------------|
|--------------------------------------------------|
|--------------------------------------------------|
|--10--10--10--10--10--10--15--15--15--15--15--15--|
|--0---0---0---0---0---0---0---0---0---0---0---0---|
|--------------------------------------------------|

10|___3____| |___3____| |___3____| |___3____|


|--------------------------------------------------|
|--------------------------------------------------|
|--------------------------------------------------|
|--14--14--14--14--14--14--12--12--12--12--14--12--|
|--0---0---0---0---0---0---0---0---0---0---0---0---|
|--------------------------------------------------|

11|___3____| |___3____| |___3____| |___3____|


|---------------------------------------------------|
|---------------------------------------------------|
|---------------------------------------------------|
|--10--10--10--10--10--10--15--15--15--15--15--15 -|
|--0---0---0---0---0---0---0---0---0---0---0---0----|
|---------------------------------------------------|

12|__3___| |___3__| |__3__| |__3__|


|-----------------------------------------|
|-----------------------------------------|
|-----------------------------------------|
|-----------------------------------------|
|------------2 h 3--3/ 7---(7)--8 5--|
|--0--1-1-1---------1/ 5---(5)--6 3--|

…….. …

13|___3____| |___3____| |___3____| |___3____|


|--------------------------------------------------|
|--------------------------------------------------|
|--------------------------------------------------|
|--10--10--10--10--10--10--15--15--15--15--15--15--|
|--0---0---0---0---0---0---0---0---0---0---0---0---|
|--------------------------------------------------|

14|___3____| |___3____| |___3____| |___3____|


|--------------------------------------------------|
|--------------------------------------------------|
|--------------------------------------------------|
|--14--14--14--14--14--14--12--12--12--12--14--12--|
|--0---0---0---0---0---0---0---0---0---0---0---0---|
|--------------------------------------------------|

15|___3____| |___3____| |___3____| |___3____|


|---------------------------------------------------|
|---------------------------------------------------|
|---------------------------------------------------|
|--10--10--10--10--10--10--15--15--15--15--15--15 -|
|--0---0---0---0---0---0---0---0---0---0---0---0----|
|---------------------------------------------------|

16|__3___| |___3__| |__3__| |___3___|


|-------------------------------------------||
|-------------------------------------------||
|-------------------------------------------||
|-------------------------------------------||
|------------2 h 3--3/ 7---(7)--8 7 5--||
|--0--1-1-1---------1/ 5---(5)--6 5 3--||

…….. …

Chorus 1.2: Guitar 2 (Play once)

1 |__3__| |__3__| |___3____| |___3____|


||--------------------------------------------|
||--------------------------------------------|
||--------------------------------------------|
||--7--7--7--7--7--7--12--12--12--12--12--12--|
||--0--0--0--0--0--0--0---0---0---0---0---0---|
||--------------------------------------------|

2 |___3____| |___3____| |__3__| |___3__|


|---------------------------------------------|
|---------------------------------------------|
|---------------------------------------------|
|--10--10--10--10--10--10--9--9--9--9--10--9--|
|--0---0---0---0---0---0---0--0--0--0--0---0--|
|---------------------------------------------|

3 |__3__| |__3__| |___3____| |___3____|


|---------------------------------------------|
|---------------------------------------------|
|---------------------------------------------|
|--7--7--7--7--7--7--12--12--12--12--12--12 -|
|--0--0--0--0--0--0--0---0---0---0---0---0----|
|---------------------------------------------|

4 |__3___| |___3__| |__3__| |__3__|


|-----------------------------------------|
|-----------------------------------------|
|-----------------------------------------|
|-----------------------------------------|
|------------2 h 3--3/ 7---(7)--8 5--|
|--0--1-1-1---------1/ 5---(5)--6 3--|

…….. …

5 |__3__| |__3__| |___3____| |___3____|


|--------------------------------------------|
|--------------------------------------------|
|--------------------------------------------|
|--7--7--7--7--7--7--12--12--12--12--12--12--|
|--0--0--0--0--0--0--0---0---0---0---0---0---|
|--------------------------------------------|

6 |___3____| |___3____| |__3__| |___3__|


|---------------------------------------------|
|---------------------------------------------|
|---------------------------------------------|
|--10--10--10--10--10--10--9--9--9--9--10--9--|
|--0---0---0---0---0---0---0--0--0--0--0---0--|
|---------------------------------------------|

7 |__3__| |__3__| |___3____| |___3____|


|---------------------------------------------|
|---------------------------------------------|
|---------------------------------------------|
|--7--7--7--7--7--7--12--12--12--12--12--12 -|
|--0--0--0--0--0--0--0---0---0---0---0---0----|
|---------------------------------------------|

8 |__3___| |___3__| |__3__| |__3__|


|-----------------------------------------|
|-----------------------------------------|
|-----------------------------------------|
|-----------------------------------------|
|------------2 h 3--3/ 7---(7)--8 5--|
|--0--1-1-1---------1/ 5---(5)--6 3--|

…….. …

9 |__3__| |__3__| |___3____| |___3____|


|--------------------------------------------|
|--------------------------------------------|
|--------------------------------------------|
|--7--7--7--7--7--7--12--12--12--12--12--12--|
|--0--0--0--0--0--0--0---0---0---0---0---0---|
|--------------------------------------------|

10|___3____| |___3____| |___3____| |___3____|


|-----------------------------------------------|
|-----------------------------------------------|
|-----------------------------------------------|
|--10--10-10-10--10--10--10--9--9--9--9--10--9--|
|--0---0--0--0---0---0---0---0--0--0--0--0---0--|
|-----------------------------------------------|

11|__3___| |__3__| |___3____| |___3____|


|----------------------------------------------|
|----------------------------------------------|
|----------------------------------------------|
|--7--7-7-7--7--7--7--12--12--12--12--12--12 -|
|--0--0-0-0--0--0--0--0---0---0---0---0---0----|
|----------------------------------------------|

12|__3___| |___3__| |__3__| |__3__|


|-----------------------------------------|
|-----------------------------------------|
|-----------------------------------------|
|-----------------------------------------|
|------------2 h 3--3/ 7---(7)--8 5--|
|--0--1-1-1---------1/ 5---(5)--6 3--|

…….. …

13|__3__| |__3__| |___3____| |___3____|


|--------------------------------------------|
|--------------------------------------------|
|--------------------------------------------|
|--7--7--7--7--7--7--12--12--12--12--12--12--|
|--0--0--0--0--0--0--0---0---0---0---0---0---|
|--------------------------------------------|

14|____3_____| |___3____| |__3__| |___3____|


|-----------------------------------------------|
|-----------------------------------------------|
|-----------------------------------------------|
|--10--10-10-10--10--10--10--9--9--9--9--10--9--|
|--0---0--0--0---0---0---0---0--0--0--0--0---0--|
|-----------------------------------------------|

15|__3___| |__3__| |___3____| |___3____|


|----------------------------------------------|
|----------------------------------------------|
|----------------------------------------------|
|--7--7-7-7--7--7--7--12--12--12--12--12--12 -|
|--0--0-0-0--0--0--0--0---0---0---0---0---0----|
|----------------------------------------------|

16|__3___| |___3__| |__3__| |___3___|


|-------------------------------------------||
|-------------------------------------------||
|-------------------------------------------||
|-------------------------------------------||
|------------2 h 3--3/ 7---(7)--8 7 5--||
|--0--1-1-1---------1/ 5---(5)--6 5 3--||

…….. …

Guitars 1 & 2 play the Post-Intro once

Guitars 1 & 2 play the Verse 4 times

Section 2 – Riff 1: Guitars 1 & 2 (Play twice)


||-------------------------|-------------------------|
||-------------------------|-------------------------|
||-------------------------|-------------------------|
||-------------------------|-------------------------|
||--5----------(3) 3 / 5--|--6--------5 / 6--5 3--|
||--3----------(5) 1 / 3--|--4--------3 / 4--3 1--|
|--------------------|-------------------------| |
|--------------------|-------------------------| |
|--------------------|-------------------------||
|--------------------|-------------------------||
|--2------------3----|--2--------3 / 5--3 / 6--| |
|--0------------1----|--0--------1 / 3--1 / 4--| |

Section 2 – Riff 2: Guitars 1 & 2 (Play twice) ( Tempo 124 BPM )

(All notes in this riff are 32nd note tremolo picking except the last 4 chords)


||----------------------|------------------------|---------------------|
||----------------------|------------------------|---------------------|
||----------------------|------------------------|---------------------|
||--7------------7 / 8--|--8--------7--8--7 5--|--4------------5--5--|
||--5------------3 / 5--|--6--------5--6--5 3--|--2------------2--3--|
||----------------------|------------------------|---------------------|
|-------------------------| |
|-------------------------| |
|-------------------------||
|--4--------4 / 5--4 / 8--||
|--2--------2 / 3--2 / 6--| |
|-------------------------| |

Section 2 – Riff 3: Guitars 1 & 2 (Play twice)

|_3_| |_3_| |_3_| |_3_| |_3_| |_3_| |_3_| |_3_|


||---------------------------------------------------|
||---------------------------------------------------|
||---------------------------------------------------|
||--------------7-7-7-8-8-8--------8-8-8-7-7-7-------|
||--5-5-5-8-8-8-------------3-3-3/-------------8-8-8-|
||---------------------------------------------------|

|_3_| |_3_| |_3_| |_3_|


|--------------------------------------------|
|--------------------------------------------|
|--------------------------------------------|
|--------8-8-8-7-7-7-8-8-8 5-5-5-5 /8-5 /8--|
|--6-6-6--------------------3-3-3-3 /6-3 /6--|
|--------------------------------------------|

|_3_| |_3_| |_3_| |_3_| |_3_| |_3_| |_3_| |_3_|


|---------------------------------------------------|
|---------------------------------------------------|
|---------------------------------------------------|
|--------------7-7-7-8-8-8--------8-8-8-7-7-7-------|
|--5-5-5-8-8-8-------------3-3-3/-------------8-8-8-|
|---------------------------------------------------|

|_3_| |_3_| |_3_| |_3_|


|--------------------------------------------| |
|--------------------------------------------| |
|--------------------------------------------||
|--------8-8-8-7-7-7-8-8-8 5-5-5-5-5--5--5--||
|--6-6-6--------------------3-3-3-3-6--6--6--| |
|--------------------------------------------| |

….

Guitars 1 & 2 play Section 2 – Riff 2 twice

Section 2 – Riff 4: Guitars 1 & 2 (Play twice)

1 |_3_| |_3_| |_3_| |_3_|


||-----------------------------------|
||--R- -------------------------|
||--E-- -------------------------|
||--S- -7-7-7-7-7-7-7-7-7-7-7-7-|
||--T- -5-5-5-5-5-5-5-5-5-5-5-5-|
||-----------------------------------|

2 |_3_| |_3_| |___3___| |___3__|


|---------------------------------------------|
|----R- --------------------------------|
|----E-- --------------------------------|
|--7-S- -7-7-7-7-7-7 /10-10-10-10-10-10-|
|--5-T- -5-5-5-5-5-5 /8--8--8--8--8--8--|
|---------------------------------------------|

3 |_3_| |_3_| |___3__| |___3__|


|---------------------------------------------|
|-----R- -------------------------------|
|-----E- -------------------------------|
|--10-S- -7-7-7-7-7-7-7 /12-12-12-12-12-|
|--8--T- -5-5-5-5-5-5-5 /10-10-10-10-10-|
|---------------------------------------------|

|___________________________(1) |____________________________________(2)
4 4 |____3___| |____3___|


|------------------------------|--------------------------------------||
|------------------------------|--------------------------------------||
|------------------------------|--------------------------------------||
|--13----12----11--13--12--11--|--12----13--12--11--12----13--12--11--||
|--11----10----9---11--10--9---|--10----11--10--9---10----11--10--9---||
|------------------------------|--------------------------------------||

Instrumental Interlude for 16 bars

Section 4 – Riff 1.1: Guitar 1 (Play once)

1 2 |__3___| 3


||-------------------|-------------------------|---------------------|
||-------------------|-------------------------|---------------------|
||-------------------|-------------------------|---------------------|
||--7----------------|--(7)----------9--10--9--|--7------------------|
||--0----------------|--(0)----------0--0---0--|--0------------8 --|
||-------------------|-------------------------|---------------6 --|

4 |__3___| |___3__| |__3___| |___3____|


|-------------------------------------------|
|-------------------------------------------|
|-------------------------------------------|
|-------------------------------------------|
|------------2 h 3---------------2 h 3------|
|--1--1-1-1---------1--1--1-1-1---------1p0-|

…….. ………..

5 |__3__| |__3__| |____3_____| |___3____|


|----------------------------------------------|
|----------------------------------------------|
|----------------------------------------------|
|--7--7--7--7--7--7--12--12-12-12--12--12--12--|
|--0--0--0--0--0--0--0---0--0--0---0---0---0---|
|----------------------------------------------|

6 |___3____| |_____3____| |___3__| |__3___|


|------------------------------------------------|
|------------------------------------------------|
|------------------------------------------------|
|--10--10--10--10-10-10--10--9--9-9-9--9--10--9--|
|--0---0---0---0--0--0---0---0--0-0-0--0--0---0--|
|------------------------------------------------|

7 |__3__| |__3__| |____3_____| |___3____|


|-----------------------------------------------|
|-----------------------------------------------|
|-----------------------------------------------|
|--7--7--7--7--7--7--12--12-12-12--12--12--12 -|
|--0--0--0--0--0--0--0---0--0--0---0---0---0----|
|-----------------------------------------------|

8 |__3___| |___3__| |__3__| |__3__|


|-----------------------------------------|
|-----------------------------------------|
|-----------------------------------------|
|-----------------------------------------|
|------------2 h 3--3/ 7---(7)--8 5--|
|--0--1-1-1---------1/ 5---(5)--6 3--|

…….. …

9 |___3____| |____3_____| |____3___| |___3____|


|----------------------------------------------------|
|----------------------------------------------------|
|----------------------------------------------------|
|--10--10--10--10--10-10-10--15--15--15--15--15--15--|
|--0---0---0---0---0--0--0---0---0---0---0---0---0---|
|----------------------------------------------------|

10|____3_____| |___3____| |_____3____| |___3____|


|------------------------------------------------------|
|------------------------------------------------------|
|------------------------------------------------------|
|--14--14-14-14--14--14--14--12--12-12-12--12--14--12--|
|--0---0--0--0---0---0---0---0---0--0--0---0---0---0---|
|------------------------------------------------------|

11|____3_____| |___3____| |____3_____| |___3____|


|-------------------------------------------------------|
|-------------------------------------------------------|
|-------------------------------------------------------|
|--10--10-10-10--10--10--10--15--15-15-15--15--15--15 -|
|--0---0--0--0---0---0---0---0---0--0--0---0---0---0----|
|-------------------------------------------------------|

12|__3___| |___3__| |__3__| |__3__|


|-----------------------------------------|
|-----------------------------------------|
|-----------------------------------------|
|-----------------------------------------|
|------------2 h 3--3/ 7---(7)--8 5--|
|--0--1-1-1---------1/ 5---(5)--6 3--|

…….. …

13|___3____| |___3____| |____3___| |___3____|


|--------------------------------------------------|
|--------------------------------------------------|
|--------------------------------------------------|
|--10--10--10--10--10--10--15--15--15--15--15--15--|
|--0---0---0---0---0---0---0---0---0---0---0---0---|
|--------------------------------------------------|

14|___3____| |___3____| |____3___| |___3____|


|--------------------------------------------------|
|--------------------------------------------------|
|--------------------------------------------------|
|--14--14--14--14--14--14--12--12--12--12--14--12--|
|--0---0---0---0---0---0---0---0---0---0---0---0---|
|--------------------------------------------------|

15|____3_____| |___3____| |____3___| |___3____|


|-----------------------------------------------------|
|-----------------------------------------------------|
|-----------------------------------------------------|
|--10--10-10-10--10--10--10--15--15--15--15--15--15 -|
|--0---0--0--0---0---0---0---0---0---0---0---0---0----|
|-----------------------------------------------------|

16|__3___| |___3__| |__3__| |___3___|


|-------------------------------------------||
|-------------------------------------------||
|-------------------------------------------||
|-------------------------------------------||
|------------2 h 3--3/ 7---(7)--8 7 5--||
|--0--1-1-1---------1/ 5---(5)--6 5 3--||

…….. …

Section 4 – Riff 1.2: Guitar 2 (Play once)

1 |__3__| |__3__| |___3____| |___3____|


||--------------------------------------------|
||--------------------------------------------|
||--------------------------------------------|
||--7--7--7--7--7--7--12--12--12--12--12--12--|
||--0--0--0--0--0--0--0---0---0---0---0---0---|
||--------------------------------------------|

2 |___3____| |___3____| |__3__| |__3___|


|---------------------------------------------|
|---------------------------------------------|
|---------------------------------------------|
|--10--10--10--10--10--10--9--9--9--9--10--9--|
|--0---0---0---0---0---0---0--0--0--0--0---0--|
|---------------------------------------------|

3 |__3__| |__3__| |___3____| |___3____|


|---------------------------------------------|
|---------------------------------------------|
|---------------------------------------------|
|--7--7--7--7--7--7--12--12--12--12--12--12 -|
|--0--0--0--0--0--0--0---0---0---0---0---0----|
|---------------------------------------------|

4 |__3___| |___3__| |__3___| |___3____|


|-------------------------------------------|
|-------------------------------------------|
|-------------------------------------------|
|-------------------------------------------|
|------------2 h 3---------------2 h 3------|
|--1--1-1-1---------1--1--1-1-1---------1p0-|

…….. ………..

5 |__3__| |__3__| |___3____| |___3____|


|--------------------------------------------|
|--------------------------------------------|
|--------------------------------------------|
|--7--7--7--7--7--7--12--12--12--12--12--12--|
|--0--0--0--0--0--0--0---0---0---0---0---0---|
|--------------------------------------------|

6 |___3____| |___3____| |__3___| |__3___|


|----------------------------------------------|
|----------------------------------------------|
|----------------------------------------------|
|--10--10--10--10--10--10--9--9-9-9--9--10--9--|
|--0---0---0---0---0---0---0--0-0-0--0--0---0--|
|----------------------------------------------|

7 |__3__| |__3__| |___3____| |___3____|


|---------------------------------------------|
|---------------------------------------------|
|---------------------------------------------|
|--7--7--7--7--7--7--12--12--12--12--12--12 -|
|--0--0--0--0--0--0--0---0---0---0---0---0----|
|---------------------------------------------|

8 |__3___| |___3__| |__3__| |__3__|


|-----------------------------------------|
|-----------------------------------------|
|-----------------------------------------|
|-----------------------------------------|
|------------2 h 3--3/ 7---(7)--8 5--|
|--0--1-1-1---------1/ 5---(5)--6 3--|

…….. …

9 |___3____| |___3____| |___3____| |___3____|


|--------------------------------------------------|
|--------------------------------------------------|
|--------------------------------------------------|
|--10--10--10--10--10--10--15--15--15--15--15--15--|
|--0---0---0---0---0---0---0---0---0---0---0---0---|
|--------------------------------------------------|

10|____3_____| |___3____| |___3____| |___3____|


|----------------------------------------------------|
|----------------------------------------------------|
|----------------------------------------------------|
|--14--14-14-14--14--14--14--12--12--12--12--14--12--|
|--0---0--0--0---0---0---0---0---0---0---0---0---0---|
|----------------------------------------------------|

11|____3_____| |___3____| |___3____| |___3____|


|-----------------------------------------------------|
|-----------------------------------------------------|
|-----------------------------------------------------|
|--10--10-10-10--10--10--10--15--15--15--15--15--15 -|
|--0---0--0--0---0---0---0---0---0---0---0---0---0----|
|-----------------------------------------------------|

12|__3___| |___3__| |__3__| |__3__|


|-----------------------------------------|
|-----------------------------------------|
|-----------------------------------------|
|-----------------------------------------|
|------------2 h 3--3/ 7---(7)--8 5--|
|--0--1-1-1---------1/ 5---(5)--6 3--|

…….. …

13|___3____| |___3____| |___3____| |___3____|


|--------------------------------------------------|
|--------------------------------------------------|
|--------------------------------------------------|
|--10--10--10--10--10--10--15--15--15--15--15--15--|
|--0---0---0---0---0---0---0---0---0---0---0---0---|
|--------------------------------------------------|

14|___3____| |___3____| |___3____| |___3____|


|--------------------------------------------------|
|--------------------------------------------------|
|--------------------------------------------------|
|--14--14--14--14--14--14--12--12--12--12--14--12--|
|--0---0---0---0---0---0---0---0---0---0---0---0---|
|--------------------------------------------------|

15|___3____| |___3____| |___3____| |___3____|


|---------------------------------------------------|
|---------------------------------------------------|
|---------------------------------------------------|
|--10--10--10--10--10--10--15--15--15--15--15--15 -|
|--0---0---0---0---0---0---0---0---0---0---0---0----|
|---------------------------------------------------|

16|__3___| |___3__| |__3__| |___3___|


|-------------------------------------------||
|-------------------------------------------||
|-------------------------------------------||
|-------------------------------------------||
|------------2 h 3--3/ 7---(7)--8 7 5--||
|--0--1-1-1---------1/ 5---(5)--6 5 3--||

…….. …

Guitars 1 & 2 play the Post-Intro once

Guitars 1 & 2 play the Verse 4 times

To play the most songs, including Under Huntress Moon by Pantera by ukulele, the most crucial basic ukulele chords to learn are C chord, D chord, G chord, and Em chord.
These set you up to play a a lot of songs, and each of them is easy to learn.

Leave a Reply

Your email address will not be published.