Warp Asylum by White Zombie Ukulele Chords

Posted on

If you are looking for Warp Asylum ukulele chords, you have visit to the right place.
You can play versatile instrument Warp Asylum using ukulele or guitar.
This song by White Zombie can also be played by that instruments.
=

Warp Asylum chords has rhythm and included in La Sexorcisto: Devil Music, Volume One (1992) album.
You can also find another musical style, including jazz ukulele chords, country music ukulele chords, pop ukulele chords, world music ukulele chords, and rock ukulele chords here.

Warp Asylum by White Zombie Ukulele Chords

Song: Warp Asylem
Album: Lasexorcisto, Devil Music Vol. 1
Band: White Zombie
Instrument: Bass Guitar
Bassist: Sean Yseult

Version 1.0: I am still working on one part of the song during the guitar solo. If
has suggestions please email me: groovestorm@gmail.com, thanks.

Standard Tuning (E, A, D, G)

Intro:


|---------9-----9-----9------|
|-----8-------8-----8---8----|
|-7-7---7---7-----7----------|
|----------------------------|

Verse:


|-------------------------------|
|-------------------------------|
|---7---5-7---5-7---7-----------|
|-0---0-----0-----0---0-5--3----|

Chorus:


|------------------------|
|------------------------|
|-----------0-1-----0----|
|-3-0-3-0-3-----0-3------|

Verse [X10]
Chorus

Bridge:


|-----------------------------|
|-----------------------------|
|-5-7----5-7----5-7----5-7----|
|-----------------------------|
|------------------------|
|------------------------|
|-------5-6-7------------|
|-3-4-5-------5-4-3-0----|
|----------------------------------|
|----------------------------------|
|----------------------------------|
|-0-0--0-0--0-0-0-0-0-0-0-0-0-0----|

Middle Riff: “sail into night, ghost ship a trippin’…”


|----------------------------|
|----------------------------|
|---------7---5-7---5-6-7----|
|-0-0-0-0---0-----0----------|

Chorus
Verse

Last Verse: “Underneath the body baby, where what you see is,
a what you, see & what you… GET!”


|----------------------------------------|
|----------------------------------------|
|---7---5-7---5-7---7--------------------|
|-0---0-----0-----0---0-5-3--3-2--2-1----|

End Riff:


|------------------------------------------------|
|------------------------------------------------|
|--------7-5--------5-7--------7-5--------5-7----|
|-0--0-0-----0--0-0-----0--0-0-----0--0-0--------|

Generated using Power Tab Editor by Brad Larsen – http://powertab.guitarnetwork.org

To play the most songs, including Warp Asylum by White Zombie by ukulele, the most important basic ukulele chords to learn are C chord, D chord, G chord, and Em chord.
These set you up to play a many of songs, and each of them is easy to master.

Leave a Reply

Your email address will not be published.