Washboard Lisa by Grayson Capps Ukulele Chords

Posted on

If you are looking for Washboard Lisa ukulele chords, you’ve visit to the right site.
You can play versatile instrument Washboard Lisa using ukulele or guitar.
This song by Grayson Capps can also be played by that instruments.
=

Washboard Lisa chords has rhythm and included in If You Knew My Mind (2005) album.
You can also get another musical genres, including jazz ukulele chords, country music ukulele chords, pop ukulele chords, world music ukulele chords, and rock ukulele chords here.

Washboard Lisa by Grayson Capps Ukulele Chords

CHORDS:
E-A-D-G-B-e


Cmaj7 x-3-2-0-0-3-|
C x-3-2-0-1-0-|
F x-x-3-2-1-1-|
G 3-2-0-0-0-3-|
Dm x-x-0-2-3-1-|

INTRO

[(1)]


e|--3-----------3------------|-1p0--------------1-----|---------1-------------|
B|---------------------------|-------3------------3---|-(1)-------1---0--1--3-|
G|----0---0-------0----------|-----2----0-0h2-2-------|--2--0h2---------------|
D|------2-------------0------|-0----------0-----------|--3--------------------|
A|--3---------------2--------|------------------------|-----------------------|
E|--------------3------------|------------------------|---------------3-------|


e|------3-0---------|
B|----1-----3-------|
G|---0--------0-0---|
D|--2----------0----|
A|-3----------------|
E|------------------|

[(2)]


e|--3-----------3------------|-1p0--------------1-----|---------1-------------|
B|---------------------------|-------3------------3---|-(1)-------1---0--1--3-|
G|----0---0-------0----------|-----2----0-0h2-2-------|--2--0h2---------------|
D|------2-------------0------|-0----------0-----------|--3--------------------|
A|--3---------------2--------|------------------------|-----------------------|
E|--------------3------------|------------------------|---------------3-------|


e|------3-0-------0---|
B|----1-----3------1--|
G|---0----------------|
D|--2---------0h2-----|
A|-3------------------|
E|--------------------|

VERSE: (2)

Standin’ on the corner of Royal Street,
on a Sunday afternoon
Out there by the old A & P
barefoot in the sun in June.
I saw her playin’ with the
big brass band with old Gate Junior on guitar
I saw her playin’ with John and Mooney too
uptown at Maddigan’s Bar.

CHORUS:

Washboard Lisa, wash away your sins
let them go down the drain
Everytime you move your dirty little hands
takes away our fears and our pain

( INTRO )

I said “hello” to her out there on the street
Boys, I looked into here eyes
She said that she knew Tom Robin
Oh, I believed it was a lie
But how can New Orleans be so good
To a Lucky Strike smoking queen
With a rip in her dress and a dirty toes
Livin? life like a dream

CHORUS:

Washboard Lisa, wash away your sins
let them go down the drain
Everytime you move your dirty little hands
takes away our fears and our pain

(INTRO) 2x

Outro:


e|------1--------------------|--3-0---------1---------|--------0------0------|
B|-----1-1------0--1?3-------|-1----3-1-------1-------|----------1------1----|
G|----2----------------------|-0----------2-----------|------0---------------|
D|---3-----------------------|-2--------3-------------|----2-----------------|
A|---------------------------|-3----------------------|--3----------3--------|
E|--------------3------------|------------------------|----------------------|


e|-----3--------------|
B|-------0---1-3------|
G|---0-----------0----|
D|--------------------|
A|--------------------|
E|-3-------3----------|


e|------1--------------------|--3-0---------1---------|--------0-----------|
B|-----1-1------0--1?3-------|-1----3-1-------1-------|----------1---------|
G|----2----------------------|-0----------2-----------|------0-------------|
D|---3-----------------------|-2--------3-------------|----2---------------|
A|---------------------------|-3----------------------|--3-----------------|
E|--------------3------------|------------------------|--------------------|


e|----------------3-0------------|
B|---0---1-3----1-----3-1--------|
G|----0---------0---------0---0--|
D|--------------2-----------0----|
A|------------3-3----------------|
E|-3-----------------------------|

www.graysoncapps.com/

To play the most songs, including Washboard Lisa by Grayson Capps by ukulele, the most crucial basic ukulele chords to learn are C chord, D chord, G chord, and Em chord.
These set you up to play a ton of songs, and each of them is easy to learn.

Leave a Reply

Your email address will not be published.