Wasted Days by Cloud Nothings Ukulele Chords

Posted on

If you are searching for Wasted Days ukulele chords, you’ve come to the best place.
You can play versatile instrument Wasted Days using ukulele or guitar.
This song by Cloud Nothings can also be played by that instruments.
=

Wasted Days chords has rhythm and included in Attack on Memory (2012) album.
You can also get other musical style, including jazz ukulele chords, country music ukulele chords, pop ukulele chords, world music ukulele chords, and rock ukulele chords here.

Wasted Days by Cloud Nothings Ukulele Chords

Cloud Nothings – Wasted Days
Tabbed by: astoit1323

I am aware that this song is normally played in E standard, but I tabbed it out for Drop
C to get the breakdown bassline. I am also aware that I did not tab out the exact solo
for the breakdown, I left it open to creativity, because the breakdown is just all
craziness, so feel free to do whatever you please at that part.

Gtr I (C G C F A D) – ‘Untitled’
Gtr II (C G C F A D) – ‘Untitled’

Q175
[4/4] Gtr I
Intro (x2):


||--------------------------|-------------------------|
||o----------10----10-------|----11-11-11-11-11-11-11-|
||-----------12-12-12-12-12-|-12-12-12-12-12-12-12-12-|
||--12-12-12-12-12-12-12-12-|-12-12-12-12-12-12-12-12-|
||o-10-10-10-10-10-10-10-10-|-10-10-10-10-10-10-10-10-|
||--------------------------|-------------------------|

|
| Gtr II


||--------------------------|-------------------------|
||o-------------------------|-------------------------|
||--------------------------|-------------------------|
||--------------------------|-------------------------|
||o-------------------------|-------------------------|
||--------------------------|-------------------------|

Q Q E E E E E E E E E E E E


|---------------|------------------||
|-8--8--------6-|---6-----6-6-6-6-o||
|-8--8--8-8-8-8-|-8-8-8-8-8-8-8-8--||
|-8--8--8-8-8-8-|-8-8-8-8-8-8-8-8--||
|-6--6--6-6-6-6-|-6-6-6-6-6-6-6-6-o||
|---------------|------------------||

|


|---------------|------------------||
|---------------|-----------------o||
|---------------|------------------||
|---------------|------------------||
|---------------|-----------------o||
|---------------|------------------||

Verse (x8):
Q E E E E E E Q E E E E E E


||---------------------|--------------------|
||o--------------------|--------------------|
||---3---3-3--3-3--3-3-|--5---5-5--5-5--5-5-|
||---3---3-3--3-3--3-3-|--5---5-5--5-5--5-5-|
||o--1---1-1--1-1--1-1-|--3---3-3--3-3--3-3-|
||---------------------|--------------------|

|
| Q Q Q Q Q Q Q Q


||---------------------|--------------------|
||o----------11---13---|----------11---13---|
||------12-------------|-----12-------------|
||--12-----------------|-12-----------------|
||o--------------------|--------------------|
||---------------------|--------------------|

Q E E E E E E Q E E E E E E 8x


|--------------------|----------------------||
|--------------------|---------------------o||
|--------------------|--7---7-7--7-7--7-7---||
|--5---5-5--5-5--5-5-|--7---7-7--7-7--7-7---||
|--5---5-5--5-5--5-5-|--5---5-5--5-5--5-5--o||
|--5---5-5--5-5--5-5-|--0---0-0--0-0--0-0---||

|
| Q Q Q Q Q Q Q Q 8x


|--------------------|-10-------------------||
|----------11---13---|-10--13---11---10----o||
|-----12-------------|-11--11---11---11-----||
|-12-----------------|----------------------||
|--------------------|---------------------o||
|--------------------|----------------------||

Chorus(x4):
Q E E E E E E Q E E E E E E


|--------------------|--------------------|
|--------------------|--------------------|
|--3---3-3--3-3--3-3-|--5---5-5--5-5--5-5-|
|--3---3-3--3-3--3-3-|--5---5-5--5-5--5-5-|
|--1---1-1--1-1--1-1-|--3---3-3--3-3--3-3-|
|--------------------|--------------------|

|
| Q Q Q Q Q Q Q Q


|----------13--------|----------15--------|
|-----15--------15---|-----15--------15---|
|-14-----------------|-14-----------------|
|--------------------|--------------------|
|--------------------|--------------------|
|--------------------|--------------------|

Q E E E E E E Q E E E E E E 4x


|--------------------|---------------------||
|--------------------|--------------------o||
|--7---7-7--7-7--7-7-|--5---5-5--5-5--5-5--||
|--7---7-7--7-7--7-7-|--5---5-5--5-5--5-5--||
|--5---5-5--5-5--5-5-|--3---3-3--3-3--3-3-o||
|--0---0-0--0-0--0-0-|---------------------||

|
| Q Q Q Q Q Q Q Q 4x


|----------15--------|----------13---------||
|-----15--------15---|-----15--------15---o||
|-14-----------------|-14------------------||
|--------------------|---------------------||
|--------------------|--------------------o||
|--------------------|---------------------||

Post-Chorus 1(x2):


||-----------------|--------------------|--------------|-----------------||
||o----------------|--------------------|--------------|----------------o||
||--7--------------|--------------------|--------------|-----------------||
||--7--------------|--------------------|--------------|-----------------||
||o-5--------------|--------------------|--------------|----------------o||
||--0--------------|--------------------|--------------|-----------------||

|
| E E Q E E E H Q E E E E E Q E E E H Q E E E


||--x-x-10--x-10---|-10----12--12-12-12-|-x-x-6--x-6---|-6----8--8-8-8---||
||o-x-x-10--x-10---|-10----10--10-10-10-|-x-x-6--x-6---|-6----6--6-6-6--o||
||--x-x-10--x-10---|-10----10--10-10-10-|-x-x-7--x-7---|-7----7--7-7-7---||
||------12----12---|-12-----------------|--------------|-----------------||
||o----------------|--------------------|--------------|----------------o||
||-----------------|--------------------|--------------|-----------------||

Post-Chorus 2(x2):
Q E E E E E E Q E E E E E E


||-------------------|------------------|
||o------------------|------------------|
||--7---7-7-7-7--7-7-|-5---5-5-5-5--5-5-|
||--7---7-7-7-7--7-7-|-5---5-5-5-5--5-5-|
||o-5---5-5-5-5--5-5-|-3---3-3-3-3--3-3-|
||--0---0-0-0-0--0-0-|------------------|

|
| H. Q H. Q


||--8-----------10---|-8-----------10---|
||o------------------|------------------|
||-------------------|------------------|
||-------------------|------------------|
||o------------------|------------------|
||-------------------|------------------|

Q E E E E E E E E E E E E E E


|------------------------|----------------------------||
|------------------------|---------------------------o||
|-10---10-10-10-10-10-10-|-10--10-10-10-10-10-10-10---||
|-10---10-10-10-10-10-10-|-10--10-10-10-10-10-10-10---||
|--8----8--8--8--8--8--8-|--8---8--8--8--8--8--8--8--o||
|------------------------|----------------------------||

|
| H. Q H. Q


|------------------------|--------------------10------||
|--6----------------8----|-10------------------------o||
|------------------------|----------------------------||
|------------------------|----------------------------||
|------------------------|---------------------------o||
|------------------------|----------------------------||

Verse(x4):
Q E E E E E E Q E E E E E E


||---------------------|--------------------|
||o--------------------|--------------------|
||---3---3-3--3-3--3-3-|--5---5-5--5-5--5-5-|
||---3---3-3--3-3--3-3-|--5---5-5--5-5--5-5-|
||o--1---1-1--1-1--1-1-|--3---3-3--3-3--3-3-|
||---------------------|--------------------|

|
| Q Q Q Q Q Q Q Q


||---------------------|--------------------|
||o----------11---13---|----------11---13---|
||------12-------------|-----12-------------|
||--12-----------------|-12-----------------|
||o--------------------|--------------------|
||---------------------|--------------------|

Q E E E E E E Q E E E E E E 4x


|--------------------|----------------------||
|--------------------|---------------------o||
|--------------------|--7---7-7--7-7--7-7---||
|--5---5-5--5-5--5-5-|--7---7-7--7-7--7-7---||
|--5---5-5--5-5--5-5-|--5---5-5--5-5--5-5--o||
|--5---5-5--5-5--5-5-|--0---0-0--0-0--0-0---||

|
| Q Q Q Q Q Q Q Q 4x


|--------------------|-10-------------------||
|----------11---13---|-10--13---11---10----o||
|-----12-------------|-11--11---11---11-----||
|-12-----------------|----------------------||
|--------------------|---------------------o||
|--------------------|----------------------||

Chorus(x4):
Q E E E E E E Q E E E E E E


|--------------------|--------------------|
|--------------------|--------------------|
|--3---3-3--3-3--3-3-|--5---5-5--5-5--5-5-|
|--3---3-3--3-3--3-3-|--5---5-5--5-5--5-5-|
|--1---1-1--1-1--1-1-|--3---3-3--3-3--3-3-|
|--------------------|--------------------|

|
| Q Q Q Q Q Q Q Q


|----------13--------|----------15--------|
|-----15--------15---|-----15--------15---|
|-14-----------------|-14-----------------|
|--------------------|--------------------|
|--------------------|--------------------|
|--------------------|--------------------|

Q E E E E E E Q E E E E E E 4x


|--------------------|---------------------||
|--------------------|--------------------o||
|--7---7-7--7-7--7-7-|--5---5-5--5-5--5-5--||
|--7---7-7--7-7--7-7-|--5---5-5--5-5--5-5--||
|--5---5-5--5-5--5-5-|--3---3-3--3-3--3-3-o||
|--0---0-0--0-0--0-0-|---------------------||

|
| Q Q Q Q Q Q Q Q 4x


|----------15--------|----------13---------||
|-----15--------15---|-----15--------15---o||
|-14-----------------|-14------------------||
|--------------------|---------------------||
|--------------------|--------------------o||
|--------------------|---------------------||

Post-Chorus 1(x2):


||-----------------|--------------------|--------------|-----------------||
||o----------------|--------------------|--------------|----------------o||
||--7--------------|--------------------|--------------|-----------------||
||--7--------------|--------------------|--------------|-----------------||
||o-5--------------|--------------------|--------------|----------------o||
||--0--------------|--------------------|--------------|-----------------||

|
| E E Q E E E H Q E E E E E Q E E E H Q E E E


||--x-x-10--x-10---|-10----12--12-12-12-|-x-x-6--x-6---|-6----8--8-8-8---||
||o-x-x-10--x-10---|-10----10--10-10-10-|-x-x-6--x-6---|-6----6--6-6-6--o||
||--x-x-10--x-10---|-10----10--10-10-10-|-x-x-7--x-7---|-7----7--7-7-7---||
||------12----12---|-12-----------------|--------------|-----------------||
||o----------------|--------------------|--------------|----------------o||
||-----------------|--------------------|--------------|-----------------||

Post-Chorus 2(x4):
Q E E E E E E Q E E E E E E


||-------------------|------------------|
||o------------------|------------------|
||--7---7-7-7-7--7-7-|-5---5-5-5-5--5-5-|
||--7---7-7-7-7--7-7-|-5---5-5-5-5--5-5-|
||o-5---5-5-5-5--5-5-|-3---3-3-3-3--3-3-|
||--0---0-0-0-0--0-0-|------------------|

|
| H. Q H. Q


||--8-----------10---|-8-----------10---|
||o------------------|------------------|
||-------------------|------------------|
||-------------------|------------------|
||o------------------|------------------|
||-------------------|------------------|

Q E E E E E E E E E E E E E E


|------------------------|----------------------------||
|------------------------|---------------------------o||
|-10---10-10-10-10-10-10-|-10--10-10-10-10-10-10-10---||
|-10---10-10-10-10-10-10-|-10--10-10-10-10-10-10-10---||
|--8----8--8--8--8--8--8-|--8---8--8--8--8--8--8--8--o||
|------------------------|----------------------------||

|
| H. Q H. Q


|------------------------|--------------------10------||
|--6----------------8----|-10------------------------o||
|------------------------|----------------------------||
|------------------------|----------------------------||
|------------------------|---------------------------o||
|------------------------|----------------------------||

Post-Chorus 3(x2)
Q E E E E E E Q E E E E E E


||------------------|-----------------|
||o-----------------|-----------------|
||--7--7-7-7-7-7--7-|-5--5-5-5-5-5--5-|
||--7--7-7-7-7-7--7-|-5--5-5-5-5-5--5-|
||o-5--5-5-5-5-5--5-|-3--3-3-3-3-3--3-|
||--0--0-0-0-0-0--0-|-----------------|

|
| Q E Q E Q Q E Q E Q


||--8--8---8---8-10-|-8--8---8---8-10-|
||o-----------------|-----------------|
||--5--5---5---5--7-|-5--5---5---5--7-|
||------------------|-----------------|
||o-----------------|-----------------|
||------------------|-----------------|

Q E E E E E E E E E E E E E


|------------------------|-------------------------||
|------------------------|------------------------o||
|-10--10-10-10-10-10--10-|-10--10-10-10-10-10-10---||
|-10--10-10-10-10-10--10-|-10--10-10-10-10-10-10---||
|--8---8--8--8--8--8---8-|--8---8--8--8--8--8--8--o||
|------------------------|-------------------------||

|
| Q E Q E Q H. Q


|------------------------|--------------------10---||
|--6---6-----6-----6---8-|-10---------------------o||
|------------------------|---------------------7---||
|--3---3-----3-----3---5-|--7----------------------||
|------------------------|------------------------o||
|------------------------|-------------------------||

Breakdown(this repeats for a very very very long time):
Q. E Q. E Q. E Q. E Q. E Q. E Q. E Q. E Q.


|-----||--------------|---------------|---------------|---------------||
|-----||o-------------|---------------|---------------|--------------o||
|-----||--------------|---------------|---------------|---------------||
|-----||--------------|---------------|---------------|---------------||
|-----||o-------------|---------------|---------------|--------------o||
|-0---||--0-0---0-0---|-0-0----0-0----|-0-0----0-0----|-0-0----0-0----||

At the breakdown, the guitarist just solos over the chords previously played. At this
point, just jam on those chords for a while, and then return back to the above bassline.
After the breakdown, the chorus comes back with:

Chorus(x4):
Q E E E E E E Q E E E E E E


|--------------------|--------------------|
|--------------------|--------------------|
|--3---3-3--3-3--3-3-|--5---5-5--5-5--5-5-|
|--3---3-3--3-3--3-3-|--5---5-5--5-5--5-5-|
|--1---1-1--1-1--1-1-|--3---3-3--3-3--3-3-|
|--------------------|--------------------|

|
| Q Q Q Q Q Q Q Q


|----------13--------|----------15--------|
|-----15--------15---|-----15--------15---|
|-14-----------------|-14-----------------|
|--------------------|--------------------|
|--------------------|--------------------|
|--------------------|--------------------|

Q E E E E E E Q E E E E E E 4x


|--------------------|---------------------||
|--------------------|--------------------o||
|--7---7-7--7-7--7-7-|--5---5-5--5-5--5-5--||
|--7---7-7--7-7--7-7-|--5---5-5--5-5--5-5--||
|--5---5-5--5-5--5-5-|--3---3-3--3-3--3-3-o||
|--0---0-0--0-0--0-0-|---------------------||

|
| Q Q Q Q Q Q Q Q 4x


|----------15--------|----------13---------||
|-----15--------15---|-----15--------15---o||
|-14-----------------|-14------------------||
|--------------------|---------------------||
|--------------------|--------------------o||
|--------------------|---------------------||

Enjoy!

To play the most songs, including Wasted Days by Cloud Nothings by ukulele, the most important basic ukulele chords to learn are C chord, D chord, G chord, and Em chord.
These set you up to play a ton of songs, and each of them is easy to learn.

Leave a Reply

Your email address will not be published.