Wasted Years by Cold Ukulele Chords

Posted on

If you are searching for Wasted Years ukulele chords, you’ve visit to the best place.
You can play versatile instrument Wasted Years using ukulele or guitar.
This song by Cold can also be played by that instruments.
=

Wasted Years chords has rhythm and included in Year of the Spider (2003) album.
You can also find other musical style, including jazz ukulele chords, country music ukulele chords, pop ukulele chords, world music ukulele chords, and rock ukulele chords here.

Wasted Years by Cold Ukulele Chords

Artist : Cold
Song : Wasted Years
Album : Year of the Spider
Tuning : 2 steps down, (low to high) C F Bb Eb G C
Tabbed by : Nick (Cold13Spiders@yahoo.com)

|_|_|_|_|_|_|
1st fret|_|_|_|_|_|_|
|_|_|_|1|_|_|
|_|_|_|_|3|_|
|_|_|_|_|_|_|
x x 0 0

|_|_[D5/F]|_|_|_|_|
1st fret|_|_|_|_|_|_|
|_|_|_|1|_|_|
|_|_|2|_|3|_|
|_|_|_|_|_|_|
x x 0

|_|_|[C/G]_|_|_|_|
1st fret|_|_|_|_|_|_|
|_|_|1|_|_|_|
|_|2|_|_|3|_|
|_|_|_|_|_|_|
x 0 0

|_|_|_|_|_|_|
1st fret|_|_|_|_|_|_|
|_|1|_|_|_|_|
|2|_|_|_|3|_|
|_|_|_|_|_|_|
0 0 0

Intro/verse


------------------------------------------------------------------------
------------------------------------------------------------------------
------------------------------------------------------------------------
--5/7--7-7-7-7h9--9-9-9-9/10-10-10-10--10-10-10-10--10-10-10-10--10-10--
--0----0-0-0-0----0-0-0-0-----0--0--8---8--8--8--8---8--8--8--8---8--8--
------------------------------------------------------------------------


------------------------------------------------------------------------
------------------------------------------------------------------------
------------------------------------------------------------------------
--5/7--7-7-7-7h9--9-9-9-9/10-10-12-12--12-12-12-12--12-12-12-12--12-12--
--0----0-0-0-0----0-0-0-0-----0-10-10--10-10-10-10--10-10-10-10--10-10--
------------------------------------------------------------------------

Chorus (chords version) 1st chorus
Guitar 1 (Acoustic)
[D5/F]


--0--0-0-0-0--0-0-0-0--0-0-0--0-0-0-0--0-0-0-0--0-0--
--3--3-3-3-3--3-3-3-3--3-3-3--3-3-3-3--3-3-3-3--3-3--
--2--2-2-2-2--2-2-2-2--2-2-2--2-2-2-2--2-2-2-2--2-2--
--0--0-0-0-0--0-0-0-0--0-0-3--3-3-3-3--3-3-3-3--3-3--
-----------------------------------------------------
-----------------------------------------------------


[C/G]


--0--0-0-0-0--0-0-0-0--0-0-0--0-0-0-0--0-0-0-0--0-0--
--3--3-3-3-3--3-3-3-3--3-3-3--3-3-3-3--3-3-3-3--3-3--
--0--0-0-0-0--0-0-0-0--0-0-0--0-0-0-0--0-0-0-0--0-0--
--2--2-2-2-2--2-2-2-2--2-2-0--0-0-0-0--0-0-0-0--0-0--
--3--3-3-3-3--3-3-3-3--3-3-2--2-2-2-2--2-2-2-2--2-2--
---------------------------3--3-3-3-3--3-3-3-3--3-3--

Guitar 2 (electric)


-----------------------------------------
-----------------------------------------
--7~--7--7-7-10~--10\\5-5~--5--5-5-4~--4--
--7~--7--7-7-10~--10\\5-5~--5--5-5-4~--4--
--5~--5--5-5--8~---8\\3-3~--3--3-3-2~--2--
-----------------------------------------


Chorus (picked)
Guitar 1 (acoustic)
[D5/F] [C/G]


--------0-------------0-------------0-------------0--------
----3-----3-------3-----3-------3-----3-------3-----3------
------2-----2-------2-----2-------0-----0-------0-----0----
--0-----------0-3-----------0-------------0-------------0--
------------------------------3-------------2--------------
-----------------------------------------------------------

Guitar 2 (electric)


-----------------------------------------
-----------------------------------------
--7~--7--7-7-10~--10\\5-5~--5--5-5-4~--4--
--7~--7--7-7-10~--10\\5-5~--5--5-5-4~--4--
--5~--5--5-5--8~---8\\3-3~--3--3-3-2~--2--
-----------------------------------------

Chorus (strummed)
Guitar 1 (acoustic)
[D5/F] [C/G]


--------0---0--0-0-------0---0--0-0-------0---0--0-0-------0-0--0-0-0-0--0-0--
----3-----3-3--3-3---3-----3-3--3-3---3-----3-3--3-3---3---3-3--3-3-3-3--3-3--
------2-----2--2-2-----2-----2--2-2-----0-----0--0-0-----0-0-0--0-0-0-0--0-0--
--0---------0--0-0-3---------3--3-3-----------2--2-2--------------------------
------------------------------------3---------3--3-3-2------------------------
------------------------------------------------------------------------------


Guitar 2 (electric)


----------------------------------
----------------------------------
--7~--10~--10\\5-5~--5--5-5-4~--4--
--7~--10~--10\\5-5~--5--5-5-4~--4--
--5~---8~---8\\3-3~--3--3-3-2~--2--
----------------------------------

Solo
(Guitar 1, acoustic)


------------------------------------------------------------
-------------------------------------13-13----12------------
--7/9--9-9-9-9/10--10-10-10/12-12-12-------12----12-12-12\\--
------------------------------------------------------------
------------------------------------------------------------
------------------------------------------------------------
------------------------------------------
------------------------------------------
--7/9--9-9-9-9/10--10-10-10/12--12-12/14--
------------------------------------------
------------------------------------------
------------------------------------------
------------------------------------------------
------------------------------------------------
--12-12h14-14-14-14--14-14--14-14-14-14--14-14--
------------------------------------------------
------------------------------------------------
------------------------------------------------
---------------------------------------
-----------------------13-13-13-13p12--
-12h14-14-14-14--14-14-----------------
---------------------------------------
---------------------------------------
---------------------------------------
-------------------------------------------------
-------------------------------------------------
12-12-12h14-14-14-14----14-14--14--14-14--14-14--
-------------------------------------------------
-------------------------------------------------
-------------------------------------------------
--------------------------------------------------------
-13p12---------------13p12---------------13--13-13h15\\--
-------12--14p12--12-------12--14p12--12----------------
--------------------------------------------------------
--------------------------------------------------------
--------------------------------------------------------

(Guitar 2) (electric live) ~ let ring


----------------------------------------------
----------------------------------------------
--2~--2-5~--5\\2~--2-------2~--2-5~--2~--2-----
--2~--2-5~--5\\2~--2-3~-3--2~--2-5~--2~--2-3~--
--0~--0-3~--3\\0~--0-3~-3--0~--0-3~--0~--0-3~--
--------------------1~-1------------------1~--


After Solo Riff (Guitar 3, acoustic)


--9/10--10-12-12-12/13--13-13h15-13-12--8-8h10-8-7--
----------------------------------------------------
----------------------------------------------------
----------------------------------------------------
----------------------------------------------------
----------------------------------------------------

Outro Riff
(Guitar 1 acoustic)


----------0---------------0---------------0--------------0----
------3-------3-------3-------3-------3-------3-------3----3--
--------2---2---2-------2---2---2-------2---2---2----2--------
--0-0-------------0-0-------------0-0-------------0-0---------
--------------------------------------------------------------
--------------------------------------------------------------

Intro/verse – 3x
Chorus (chords) – 2x
Intro/verse – 4x
Chorus (picked) – 2x
Intro/verse – 1x
Solo – 1x
Chorus (picked) – 4x After Solo riff – 4x
Chorus (strummed) – 2x After Solo riff – 2x
Gtr 1: Outro Riff

To play the this songs, including Wasted Years by Cold by ukulele, the most important basic ukulele chords to learn are C chord, D chord, G chord, and Em chord.
These set you up to play a many of songs, and each of them is easy to master.

Leave a Reply

Your email address will not be published.