Wave Goodbye by Sophie Madeleine Ukulele Chords

Posted on

If you are searching for Wave Goodbye ukulele chords, you already come to the best place.
You can play versatile instrument Wave Goodbye using ukulele or guitar.
This song by Sophie Madeleine can also be played by that instruments.
=

Wave Goodbye chords has rhythm and included in album.
You can also get other musical genres, including jazz ukulele chords, country music ukulele chords, pop ukulele chords, world music ukulele chords, and rock ukulele chords here.

Wave Goodbye by Sophie Madeleine Ukulele Chords

Written and recorded by Sophie Madeleine
http://sophiemadeleine.bandcamp.com/track/wave-goodbye


Intro C G Am D/F# Em-------(x3) Em (Am... lyrics)
e|---------0-0---3-3---0-0---2-2---0-0----0------0-0---0----------------|
B|---------1-1---3-3---1-1---3-3---0-0----0------0-0---0----------------|
G|---------0-0---0-0---2-2---2-2---0-0----0------0-0---0----------------|
D|---------2-2---0-0---2-2---0-0---2-2-0h2-------2-2---2----------------|
A|---0-2-3-----2-----0---------------------2h3-------2---2-0------------|
E|-3-----------------------2-----0-------------0------------------------|

Verse:
I’ve never known tears like these [D/F#]before.
Stinging my face like a pepper spray.
Can’t stop the flow it’s a water[D/F#]fall.
The current takes and I start [G/C]to [G/B]wash [D/F#]a—-way.

Chorus:
I could drown if I stay here. [G-D/F#]
I could drown in my own tears. So
I’ll float away on my box of [D/F#]souvenirs.
And I will wave [G/B]good bye [D/F#]my dear.

Verse:
We never knew how to row our [D/F#]boat.
Spinning around so unevenly.
Soaking me through with your every [D/F#]stroke.
Until we found we were drif[G/C]ting [G/B]hope-[D/F#]less-ly.

Chorus:
I could drown if I stay here.
I could drown in my own tears.
So I’ll float away on my box of souvenirs.
And I will wave goodbye my dear.
And I will wave goodbye my dear.


-----------------------------------------------------------------------

TAB

verse:
[D/F#]


e|----0-0---0-0-----0-0---0-0--------3-3---3-3---2-2---2---------------|
B|----1-1---1-1-----1-1---1-1--------3-3---3-3---3-3---3---------------|
G|----2-2---2-2-----0-0---0-0--------0-0---0-0---2-2---2---------------|
D|----2-2-2-2-2-----2-2-2-2-2--------0-0---0-0---0-0-0-0---------------|
A|--0-------------3---------------------0h2--------------0h2-----------|
E|---------------------------------3-----------2-----------------------|

I’ve… known tears… these before.
Can’t…flow it’s a wa ter fall.
( Tab from: http://www.guitartabs.cc/tabs/s/sophie_madeleine/wave_goodbye_tab.html )


e|----0-0---0-0-----0-0---0-0------3-3---3-3---3-3---3-----------------|
B|----1-1---1-1-----1-1---1-1------3-3---3-3---3-3---3-----------------|
G|----2-2---2-2-----0-0---0-0------0-0---0-0---0-0---0-----------------|
D|----2-2-2-2-2-----2-2---2-2------0-0---0-0---0-0---0-----------------|
A|--0-------------3-----3-------------0h2---------0h2--0h2-------------|
E|-------------------------------3-----------3-------------------------|

Sting…face like a pepper spray.

[G/B] [D/A]


e|----0-0---0-0-----0-0---0-0--------3-3---3-3---3-3---2-2---0-0-------|
B|----1-1---1-1-----1-1---1-1--------3-3---3-3---3-3---3-3---0-0-------|
G|----2-2---2-2-----0-0---0-0--------0-0---0-0---0-0---2-2---0-0-------|
D|----2-2-2-2-2-----2-2-2-2-2--------0-0---0-0---0-0---0-0---2-2-------|
A|--0-------------3----------------------3-----2-----0-----------------|
E|---------------------------------3-----------------------0-----------|

The cur..takes and I start to wash a way.

corus:
…Em C G G D/F#


e|----0-0---0-0---0-0---3-3---3-3---3-3---2-2--------------------|
B|----0-0---1-1---1-1---3-3---3-3---3-3---3-3--------------------|
G|----0-0---0-0---0-0---0-0---0-0---0-0---2-2--------------------|
D|----2-2---2-2-2-2-2---0-0---0-0---0-0---0-0--------------------|
A|--2-----3----------------0h2-----------------------------------|
E|--------------------3-----------3-----2------------------------|

I…drown if here.
I stay


e|----0-0---0-0---0-0---0-0---3-3---3-3---2-2---2-2--------------|
B|----0-0---0-0---1-1---1-1---3-3---3-3---3-3---3-3--------------|
G|----0-0---0-0---0-0---0-0---0-0---0-0---4-4---4-4--------------|
D|----2-2-2-2-2---2-20h22-0---0-0---0-0---4-4-4-4-4--------------|
A|--------------3----------------0h2----2------------------------|
E|--0-----------------------3------------------------------------|

I…drown in tears. so–o-o
my own

[D/F#]


e|----0-0---0-0---0-0---0-.---3-3---2-2---0-0--------------------|
B|----0-0---0-0---1-1---1-.---3-3---3-3---0-0--------------------|
G|----0-0---0-0---0-0---0-.---0-0---2-2---0-0--------------------|
D|----2-2-2-2-2---2-20h22-0---0-0---0-0---2-2--------------------|
A|--------------3------------------------------------------------|
E|--0-----------------------3-----2-----0------------------------|

I’ll..way on my souve nirs.
box of

…Em C G/B Am D/F# Em (3 times) Em


e|----------0-0---3-3---0-0---2-2---0-0---0-----0-0---0----------|
B|----------1-1---3-3---1-1---3-3---0-0---0-----0-0---0----------|
G|----------0-0---0-0---2-2---2-2---0-0---0-----0-0---0----------|
D|----------2-2---0-0---2-2---0-0---2-20h2------2-2---2----------|
A|----0-2-3-----2-----0--------------------2h3------2---2--------|
E|--3-----------------------2-----0------------0-----------------|

And.will
wave good bye my dear.

from LOVE. LIFE. UKULELE., released 01 March 2009
http://sophiemadeleine.bandcamp.com/album/love-life-ukulele
Written and recorded by Sophie Madeleine
Cello by Victoria Wadey

Tabbed by –Art

To play the most songs, including Wave Goodbye by Sophie Madeleine by ukulele, the most crucial basic ukulele chords to learn are C chord, D chord, G chord, and Em chord.
These set you up to play a many of songs, and each of them is easy to learn.

Leave a Reply

Your email address will not be published.