We’re All to Blame by Sum 41 Ukulele Chords

Posted on

If you are looking for We’re All to Blame ukulele chords, you already visit to the best site.
You can play versatile instrument We’re All to Blame using ukulele or guitar.
This song by Sum 41 can also be played by that instruments.
=

We’re All to Blame chords has rhythm and included in Chuck (2004) album.
You can also find another musical genres, including jazz ukulele chords, country music ukulele chords, pop ukulele chords, world music ukulele chords, and rock ukulele chords here.

We’re All to Blame by Sum 41 Ukulele Chords

#
#Artist: Sum 41
#Song: We’re All To Blame
#Album: Chuck (out: 10/12/04)
#Date: 9/24/04
#Tabbed: stke22 (email: killerewok22@hotmail.com)
#
#Deryck: Up Half-Step (E# A# D# G# B# E#)
#Dave: Drop-D Up Half-Step (D# A# D# G# B# E#)
#Key of D# minor (B major)
#Tempo ~ 165
#
#. palm mute (below note(s))
#. staccato (on top of note(s))
#~ hold note(s)
#
#Notes: If you’re lazy, you can just drop-D it and put a capo on and everything you play is up half a step.
# Missing a melody for the 3rd Chorus.
#
#Updates:
#
#9/26/04 – Changed some lyrics, added comments, tuning alternatives, some chords.
#
#9/27/04 – More things! Gotta watch the video carefully now, eh?
#
#
#
#Intro (0:03):
#Both Guitars:

E#|--------------------------------|--------------------------------|
B#|--------------------------------|--------------------------------|
G#|7---7-7-7---7-7-7---7-7-8---7---|7---7-7-7---7-7-7---7-7-8---7---|
D#|x---x-x-x---x-x-x---x-x-x---x---|x---x-x-x---x-x-x---x-x-x---x---|
A#|5---5-5-5---5-5-5---5-5-6---5---|5---5-5-5---5-5-5---5-5-6---5---|
D#|--------------------------------|--------------------------------|

1 e & a 2 e & a 3 e & a 4 e & a 1 e & a 2 e & a 3 e & a 4 e & a


E#|--------------------------------|--------------------------------|
B#|--------------------------------|--------------------------------|
G#|7---7-7-7---7-7-7---7-7-8---7---|3----2----3----5-----2----3-----|
D#|x---x-x-x---x-x-x---x-x-x---x---|3----2----3----5-----2----3-----| A#|5---5-5-5---5-5-5---5-5-6---5---|1----0----1----3-----0----1-----|
D#|--------------------------------|--------------------------------|

1 e & a 2 e & a 3 e & a 4 e & a 1 e a 3 e a
Second Guitar does random slide

(0:09):


E#|--------------------------------|--------------------------------|
B#|--------------------------------|--------------------------------|
G#|------------------------10------|------------------------10------|
D#|0-0-0-0-0-0-0-0-0-------x-------|0-0-0-0-0-0-0-0-0-------x-------|
A#|0-0-0-0-0-0-0-0-0-------8-------|0-0-0-0-0-0-0-0-0-------8-------|
D#|0-0-0-0-0-0-0-0-0---------------|0-0-0-0-0-0-0-0-0---------------|

1 e & a 2 e & a 3 e & a 4 e & a 1 e & a 2 e & a 3 e & a 4 e & a
. . . . . . . . . . . . . . . . . .


E#|--------------------------------|--------------------------------|
B#|--------------------------------|--------------------------------|
G#|------------------------10------|3----2----3----5-----2----3-----|
D#|0-0-0-0-0-0-0-0-0-------x-------|3----2----3----5-----2----3-----|
A#|0-0-0-0-0-0-0-0-0-------8-------|1----0----1----3-----0----1-----|
D#|0-0-0-0-0-0-0-0-0---------------|--------------------------------|

1 e & a 2 e & a 3 e & a 4 e & a 1 e a 3 e a
. . . . . . . . .


E#|--------------------------------|--------------------------------|
B#|--------------------------------|--------------------------------|
G#|--------------------------------|.-------.-------.-------.-------|
D#|3----2----3----5-----2----3-----|0-------0-------0-------0-------|
A#|1----0----1----3-----0----1-----|0-------0-------0-------0-------|
D#|--------------------------------|0-------0-------0-------0-------|

1 e a 3 e a 1 e & a 2 e & a 3 e & a 4 e & a
. . . . . .

1st Verse (0:18):
I’m not sure if Deryck does the heavy part, but he doesn’t do the octaves.


E#|--------------------------------|--------------------------------|
B#|--------------------------------|--------------------------------|
G#|7-7-7-7-7-7-7-7-7-7-7-7-2-2-2-2-|5-5-5-5-5-5-5-5-3-3-3-3-3-3-3-3-|
D#|x-x-x-x-x-x-x-x-x-x-x-x-x-x-x-x-|x-x-x-x-x-x-x-x-x-x-x-x-x-x-x-x-|
A#|5-5-5-5-5-5-5-5-5-5-5-5-0-0-0-0-|3-3-3-3-3-3-3-3-1-1-1-1-1-1-1-1-|
D#|--------------------------------|--------------------------------|

1 e & a 2 e & a 3 e & a 4 e & a 1 e & a 2 e & a 3 e & a 4 e & a


E#|--------------------------------|--------------------------------|
B#|--------------------------------|--------------------------------|
G#|--------------------------------|--------------------------------|
D#|0-----0-3---0---0-----0-2---0---|0-----0-1---0---0---1---0---1---|
A#|0-----0-3---0---0-----0-2---0---|0-----0-1---0---0---1---0---1---|
D#|0-----0-3---0---0-----0-2---0---|0-----0-1---0---0---1---0---1---|

1 e & a 2 e & a 3 e & a 4 e & a 1 e & a 2 e & a 3 e & a 4 e & a
. . . . . . . . . . . . . .


E#|--------------------------------|--------------------------------|
B#|--------------------------------|--------------------------------|
G#|7-7-7-7-7-7-7-7-7-7-7-7-2-2-2-2-|3-3-3-3-3-3-3-3-5-5-5-5-5-5-5-5-|
D#|x-x-x-x-x-x-x-x-x-x-x-x-x-x-x-x-|x-x-x-x-x-x-x-x-x-x-x-x-x-x-x-x-|
A#|5-5-5-5-5-5-5-5-5-5-5-5-0-0-0-0-|1-1-1-1-1-1-1-1-3-3-3-3-3-3-3-3-|
D#|--------------------------------|--------------------------------|

1 e & a 2 e & a 3 e & a 4 e & a 1 e & a 2 e & a 3 e & a 4 e & a


E#|--------------------------------|--------------------------------|
B#|--------------------------------|--------------------------------|
G#|--------------------------------|--------------------------------|
D#|0-----0-3---0---0-----0-2---0---|0-----0-1---0---0---1---0---1---|
A#|0-----0-3---0---0-----0-2---0---|0-----0-1---0---0---1---0---1---|
D#|0-----0-3---0---0-----0-2---0---|0-----0-1---0---0---1---0---1---|

1 e & a 2 e & a 3 e & a 4 e & a 1 e & a 2 e & a 3 e & a 4 e & a
. . . . . . . . . . . . . .

(0:30):
Deryck overdubs (?):


E#|--------------------------------|--------------------------------|
B#|--------------------------------|--------------------------------|
G#|7-7-7-7-7-7-1010101010109-9-9-9-|9-9-5-5-5-5-5-5-9-9-9-9-9-9-9-9-|
D#|x-x-x-x-x-x-x-x-x-x-x-x-x-x-x-x-|x-x-x-x-x-x-x-x-x-x-x-x-x-x-x-x-| A#|5-5-5-5-5-5-8-8-8-8-8-8-7-7-7-7-|7-7-3-3-3-3-3-3-7-7-7-7-7-7-7-7-|
D#|--------------------------------|--------------------------------|

1 e & a 2 e & a 3 e & a 4 e & a 1 e & a 2 e & a 3 e & a 4 e & a


E#|--------------------------------|--------------------------------|
B#|--------------------------------|--------------------------------|
G#|--------------------------------|--------------------------------|
D#|0-----0-3---0---0-----0-2---0---|0-----0-1---0---0---1---0---1---|
A#|0-----0-3---0---0-----0-2---0---|0-----0-1---0---0---1---0---1---|
D#|0-----0-3---0---0-----0-2---0---|0-----0-1---0---0---1---0---1---|

1 e & a 2 e & a 3 e & a 4 e & a 1 e & a 2 e & a 3 e & a 4 e & a
. . . . . . . . . . . . . .


E#|--------------------------------|--------------------------------|
B#|--------------------------------|--------------------------------|
G#|7-7-7-7-7-7-1010101010105-5-5-5-|12121212121212121010101010101010|
D#|x-x-x-x-x-x-x-x-x-x-x-x-x-x-x-x-|x-x-x-x-x-x-x-x-x-x-x-x-x-x-x-x-| A#|5-5-5-5-5-5-8-8-8-8-8-8-3-3-3-3-|10101010101010108-8-8-8-8-8-8-8-|
D#|--------------------------------|--------------------------------|

1 e & a 2 e & a 3 e & a 4 e & a 1 e & a 2 e & a 3 e & a 4 e & a


E#|--------------------------------|--------------------------------|
B#|--------------------------------|--------------------------------|
G#|--------------------------------|3----2----3----5-----2----3-----|
D#|0-----0-3---0---0-----0-2---0---|3----2----3----5-----2----3-----|
A#|0-----0-3---0---0-----0-2---0---|1----0----1----3-----0----1-----|
D#|0-----0-3---0---0-----0-2---0---|--------------------------------|

1 e & a 2 e & a 3 e & a 4 e & a 1 e a 3 e a
. . . . . . . .

1st Chorus (0:42):
Deryck chords, Dave melody:


E#|--------------------------------|--------------------------------|
B#|--------------------------------|--------------------------------|
G#|--------------------------------|--------------------------------|
D#|5~------------------------------|(5)-----------------------------|
A#|5~------------------------------|(5)-----------------------------|
D#|5~------------------------------|(5)-----------------------------|

Clean Guitar w/ Tremolo effect


E#|3~------------------------------|--------------------------------|
B#|3~------------------------------|4~------------------------------|
G#|0~------------------------------|5~------------------------------|
D#|0~------------------------------|5~------------------------------|
A#|x-------------------------------|3~------------------------------|
E#|3~------------------------------|--------------------------------|

1 e & a 2 e & a 3 e & a 4 e & a 1 e & a 2 e & a 3 e & a 4 e & a


E#|1~------------------------------|1~------------------------------|
B#|1~------------------------------|3~------------------------------|
G#|2~------------------------------|2~------------------------------|
D#|3~------------------------------|0~------------------------------|
A#|3~------------------------------|--------------------------------|
E#|1~------------------------------|--------------------------------|

1 e & a 2 e & a 3 e & a 4 e & a 1 e & a 2 e & a 3 e & a 4 e & a

(0:48):
Not sure about the C# chord here…
[C#5add9]


E#|3---3---3---3---3---3---3---3---|1---1---1---1---1---1---1---1---|
B#|3---3---3---3---3---3---3---3---|1---1---1---1---3---3---3---3---|
G#|0---0---0---0---0---0---0---0---|2---2---2---2---2---2---2---2---|
D#|0---0---0---0---x---x---x---x---|3---3---3---3---0---0---0---0---|
A#|x---x---x---x---3---3---3---3---|3---3---3---3-------------------|
E#|3---3---3---3-------------------|1---1---1---1-------------------|

1 e & a 2 e & a 3 e & a 4 e & a 1 e & a 2 e & a 3 e & a 4 e & a |Play three times.
G#m C#madd9 F#5 D#m |End on D#m let ring one measure.


E#|--------------------------------|--------------------------------| /
B#|8~------------------------------|--------6~--------------6~------| /
G#|----7~------7~------7~--8~--7~--|----5~------5~--7~--------------| /
D#|--------8~------5~--------------|3~------------------7~------7~--| /
A#|--------------------------------|--------------------------------| /
D#|--------------------------------|--------------------------------|/

1 e & a 2 e & a 3 e & a 4 e & a 1 e & a 2 e & a 3 e & a 4 e & a

(1:06):


E#|(1)-----------------------------|--------------------------------|
B#|(3)-----------------------------|--------------------------------|
G#|(2)-----------------------------|3----2----3----5-----2----3-----|
D#|(0)-----------------random------|3----2----3----5-----2----3-----|
A#|--------------------slide-------|1----0----1----3-----0----1-----|
D#|--------------------------------|--------------------------------|

1 e & a 2 e & a 3 e & a 4 e & a 1 e a 3 e a


E#|--------------------------------|
B#|--------------------------------|
G#|.-------.-------.-------.-------|
D#|0-------0-------0-------0-------|
A#|0-------0-------0-------0-------|
D#|0-------0-------0-------0-------|

1 e & a 2 e & a 3 e & a 4 e & a

2nd Verse (1:11):

Repeat 1st Verse.

2nd Chorus (1:34):

Repeat 1st Chorus. Stop at “1:06” and play the below instead (1:59).

Bridge (1:59):
Second guitar sounds like a piano:


E#|3---3---3---3-------------------|----------------1---1---1---1---|
B#|3---3---3---3---3---3---3---3---|3---3---3---3---1---1---1---1---|
G#|0---0---0---0---2---2---2---2---|3---3---3---3---2---2---2---2---|
D#|0---0---0---0---1---1---1---1---|3---3---3---3---3---3---3---3---|
A#|x---x---x---x---1---1---1---1---|1---1---1---1---3---3---3---3---|
E#|3---3---3---3-------------------|----------------1---1---1---1---|

1 e & a 2 e & a 3 e & a 4 e & a 1 e & a 2 e & a 3 e & a 4 e & a
[Esusb2b5]


E#|--------------------------------|--------------------------------|
B#|8~--8~--8~--8~--10~-10~-10~-10~-|11~-11~-11~-11~-6~--6~--6~--6~--|
G#|7~--7~--7~--7~--9~--9~--9~--9~--|10~-10~-10~-10~-5~--5~--5~--5~--| D#|--------------------------------|--------------------------------|
A#|--------------------------------|--------------------------------|
D#|--------------------------------|--------------------------------|

1 e & a 2 e & a 3 e & a 4 e & a 1 e & a 2 e & a 3 e & a 4 e & a


E#|3---3---3---3-------------------|----------------1~--------------|
B#|3---3---3---3---3---3---3---3---|3---3---3---3---1~--------------|
G#|0---0---0---0---2---2---2---2---|3---3---3---3---2~--------------|
D#|0---0---0---0---1---1---1---1---|3---3---3---3---3~--------------|
A#|x---x---x---x---1---1---1---1---|1---1---1---1---3~--------------|
E#|3---3---3---3-------------------|----------------1~--------------|

1 e & a 2 e & a 3 e & a 4 e & a 1 e & a 2 e & a 3 e & a 4 e & a
[Esusb2b5]


E#|--------------------------------|--------------------------------|
B#|8~--8~--8~--8~--10~-10~-10~-10~-|11~-11~-11~-11~-6~--------------|
G#|7~--7~--7~--7~--9~--9~--9~--9~--|10~-10~-10~-10~-5~--------------|
D#|--------------------------------|--------------------------------|
A#|--------------------------------|--------------------------------|
D#|--------------------------------|--------------------------------|

1 e & a 2 e & a 3 e & a 4 e & a 1 e & a 2 e & a 3 e & a 4 e & a


E#|(1)-----------------------------|(1)-----------------------------|
B#|(1)-----------------------------|(1)-----------------------------|
G#|(2)-----------------------------|(2)-----------------------------|
D#|(3)-----------------------------|(3)-------------------------3---|
A#|(3)-----------------------------|(3)-------------------------3---|
D#|(1)-----------------------------|(1)-------------------------3---|

1 e & a 2 e & a 3 e & a 4 e & a 1 e & a 2 e & a 3 e & a 4 e & a

3rd Verse (2:13):


E#|--------------------------------|--------------------------------|
B#|--------------------------------|--------------------------------|
G#|--------------------------------|----------------------------8---|
D#|0-----------3---0-----------2---|0-----------2---0---3---5---x---|
A#|0-----------3---0-----------2---|0-----------2---0---3---5---6---|
D#|0---0-0-0-0-3---0---0-0-0-0-2---|0---0-0-0-0-2---0---3---5-------|

1 e & a 2 e & a 3 e & a 4 e & a 1 e & a 2 e & a 3 e & a 4 e & a
. . . . . . . . . . . .


E#|--------------------------------|--------------------------------|
B#|--------------------------------|--------------------------------|
G#|--------------------------------|----------------------------8---|
D#|0-----------3---0-----------2---|0-----------2---0---3---5---x---|
A#|0-----------3---0-----------2---|0-----------2---0---3---5---6---|
D#|0---0-0-0-0-3---0---0-0-0-0-2---|0---0-0-0-0-2---0---3---5-------|

1 e & a 2 e & a 3 e & a 4 e & a 1 e & a 2 e & a 3 e & a 4 e & a
. . . . . . . . . . . .

(2:19):


E#|--------------------------------|--------------------------------|
B#|--------------------------------|--------------------------------|
G#|--------------------------------|--------------------------------|
D#|0---0-0-0-0-0-0-0---------------|0---0-0-0-0-0-0-0---------------|
A#|0---0-0-0-0-0-0-0---------------|0---0-0-0-0-0-0-0---------------|
D#|0---0-0-0-0-0-0-0---------------|0---0-0-0-0-0-0-0---------------|

1 e & a 2 e & a 3 e & a 4 e & a 1 e & a 2 e & a 3 e & a 4 e & a
. . . . . . . . . . . . N.C.


E#|--------------------------------|--------------------random------|
B#|--------------------------------|--------------------slide-by----|
G#|--------------------------------|--------------------2nd-guitar--|
D#|0---0-0-0-0-0-0-0---------------|0---0-0-0-0-0-0-0---------------|
A#|0---0-0-0-0-0-0-0---------------|0---0-0-0-0-0-0-0-------0-------|
D#|0---0-0-0-0-0-0-0---------------|0---0-0-0-0-0-0-0---------3-2-3-|

1 e & a 2 e & a 3 e & a 4 e & a 1 e & a 2 e & a 3 e & a 4 e & a
. . . . . . . . . . . .


E#|--------------------------------|--------------------------------|
B#|--------------------------------|--------------------------------|
G#|--------------------------------|--------------------------------|
D#|0---0-0-0-0-0-0-0---------------|0---0-0-0-0-0-0-0---------------|
A#|0---0-0-0-0-0-0-0---------------|0---0-0-0-0-0-0-0---------------|
D#|0---0-0-0-0-0-0-0-------8-------|0---0-0-0-0-0-0-0-------7-------|

1 e & a 2 e & a 3 e & a 4 e & a 1 e & a 2 e & a 3 e & a 4 e & a
. . . . . . . . . . . .


E#|--------------------------------|----------------|----------------|
B#|--------------------------------|----------------|----------------|
G#|--------------------------------|----------------|----------------|
D#|0---0-0-0-0-0-0-0---------------|3-3-3-3-3-3-3-3-|3-3-3-3-3-3-3-3-|
A#|0---0-0-0-0-0-0-0---------------|3-3-3-3-3-3-3-3-|3-3-3-3-3-3-3-3-|
D#|0---0-0-0-0-0-0-0-------8-------|3-3-3-3-3-3-3-3-|3-3-3-3-3-3-3-3-|

1 e & a 2 e & a 3 e & a 4 e & a 1 & 2 & 3 & 4 & 1 & 2 & 3 & 4 &
. . . . . . . . . . . . . . . . .

3rd Chorus (2:31):
[C#5add9]


E#|3---3---3---3---3---3---3---3---|1---1---1---1---1---1---1---1---|
B#|3---3---3---3---3---3---3---3---|1---1---1---1---3---3---3---3---|
G#|0---0---0---0---0---0---0---0---|2---2---2---2---2---2---2---2---|
D#|0---0---0---0---x---x---x---x---|3---3---3---3---0---0---0---0---|
A#|x---x---x---x---3---3---3---3---|3---3---3---3-------------------|
E#|3---3---3---3-------------------|1---1---1---1-------------------|

1 e & a 2 e & a 3 e & a 4 e & a 1 e & a 2 e & a 3 e & a 4 e & a |Play two times.
G#m C#madd9 F#5 D#m |


E#|--------------------------------|--------------------------------| /
B#|8~------------------------------|--------6~--------------6~------| /
G#|----7~------7~------7~--8~--7~--|----5~------5~--7~--------------| /
D#|--------8~------5~--------------|3~------------------7~------7~--| /
A#|--------------------------------|--------------------------------| /
D#|--------------------------------|--------------------------------|/

1 e & a 2 e & a 3 e & a 4 e & a 1 e & a 2 e & a 3 e & a 4 e & a

(2:42):


E#|3---3---3---3-------------------|----------------1---1---1---1---|
B#|3---3---3---3---3---3---3---3---|3---3---3---3---1---1---1---1---|
G#|0---0---0---0---2---2---2---2---|3---3---3---3---2---2---2---2---|
D#|0---0---0---0---1---1---1---1---|3---3---3---3---3---3---3---3---|
A#|x---x---x---x---1---1---1---1---|1---1---1---1---3---3---3---3---|
E#|3---3---3---3-------------------|----------------1---1---1---1---|

1 e & a 2 e & a 3 e & a 4 e & a 1 e & a 2 e & a 3 e & a 4 e & a |Play four times.
|


E#|--------------------------------|--------------------------------| /
B#|--------------------------------|--------------------------------| /
G#|--------------------------------|--------------------------------| /
D#|--------------------------------|--------------------------------| /
A#|--------------------------------|--------------------------------| /
D#|--------------------------------|--------------------------------|/

1 e & a 2 e & a 3 e & a 4 e & a 1 e & a 2 e & a 3 e & a 4 e & a

Outro (3:06):


E#|--------------------------------|--------------------------------|
B#|--------------------------------|--------------------------------|
G#|--------------------------------|--------------------------------|
D#|5~------------------------------|(5)-----------------------------|
A#|5~------------------------------|(5)-----------------------------|
D#|5~------------------------------|(5)-----------------------------|

Acoustic Guitar (Standard Tuning Up Half Step):
[C#5add9]


E#|3~------------------------------|3~------------------------------|
B#|3~------------------------------|3~------------------------------|
G#|0~------------------------------|0~------------------------------|
D#|0~------------------------------|x~------------------------------|
A#|x~------------------------------|3~------------------------------|
E#|3~------------------------------|--------------------------------|

1 e & a 2 e & a 3 e & a 4 e & a 1 e & a 2 e & a 3 e & a 4 e & a


E#|1~------------------------------|1~------------------------------|
B#|1~------------------------------|3~------------------------------|
G#|2~------------------------------|2~------------------------------|
D#|3~------------------------------|0~------------------------------|
A#|3~------------------------------|--------------------------------|
E#|1~------------------------------|--------------------------------|

1 e & a 2 e & a 3 e & a 4 e & a 1 e & a 2 e & a 3 e & a 4 e & a

Strumming pattern:
|E E E SS|[C#5add9]E E E SS|E E E SS|E E E SS|

Melody (Dave?) with acoustic sounding guitar:
[C#5add9]


E#|--------------------------------|--------------------------------|
B#|8~------------------------------|--------6~----------------------|
G#|----7~------7~------7~--8~--7~--|----5~------5~--8~--8~------5~--|
D#|--------8~------5~--------------|3~----------------------8~------|
A#|--------------------------------|--------------------------------|
D#|--------------------------------|--------------------------------|

1 e & a 2 e & a 3 e & a 4 e & a 1 e & a 2 e & a 3 e & a 4 e & a
[C#5add9]


E#|--------------------------------|--------------------------------|
B#|--------------------------------|--------6~----------------------|
G#|----7~------7~------7~--8~--7~--|----5~------5~--7~--------------|
D#|8~------8~------5~--------------|3~------------------7~------7~--|
A#|--------------------------------|------------------------8~------|
D#|--------------------------------|--------------------------------|

1 e & a 2 e & a 3 e & a 4 e & a 1 e & a 2 e & a 3 e & a 4 e & a
[C#5add9]


E#|--------------------------------|--------------------------------|
B#|--------------------------------|--------6~----------------------|
G#|----7~------7~------7~--8~--7~--|----5~------5~--8~--7~------5~--|
D#|5~------8~------5~--------------|3~----------------------8~------|
A#|--------------------------------|--------------------------------|
D#|--------------------------------|-----------ritard (slow down)...|

1 e & a 2 e & a 3 e & a 4 e & a 1 e & a 2 e & a 3 e & a 4 e & a

End on G#5.

3:38

The End

Lyrics:
Want it all…
Hey are we singing?

Take everything left from me!
All! To! Blame!

How can we still succeed?
Taking what we don’t need
Telling lies, alibies
Selling all the hate that we breed
Super-size our tragedy
(You disappoint me, or dis a fy gree)…?
Born in the land of the free
(Land! Free!)

And we’re all to blame
We’ve gone to far
From pride to shame
We’re trying so hard
We’re dieing in vain
We’re hopelessly blissful and blind
To all we are
We wanted all
With no sacriface!

Realize we spend our lives
Living in a culture of fear
Saying thanks to you…?
Say thanks to the man of the year
How did we all come to this?
(You disappoint me, or dis a fy gree)…?
We scream and we just can’t resist
(Re!-sist!)

And we’re all to blame
We’ve gone to far
From pride to shame
We’re trying so hard
We’re dieing in vain
We’re hopelessly blissful and blind
To all we are
We wanted all
Everyone wanted all
With no sacriface!

Tell me now
What have we done
We don’t know
I can’t allow
What has begun
…?
I’m are leaving now
We have no choice
Slept with our backs against the wall

And now
We’re all to blame
We’ve gone to far
From pride to shame
We’re hopelessly blissful and blind
When all we need
Is something true
To believe
Don’t we all
Everyone
Everyone
We will fall

‘Cause we’re all to blame
We’ve gone to far
From pride to shame
We’re trying so hard
We’re dieing in vain
We want it all
Everyone
Don’t we all

To play the this songs, including We’re All to Blame by Sum 41 by ukulele, the most crucial basic ukulele chords to learn are C chord, D chord, G chord, and Em chord.
These set you up to play a a lot of songs, and each of them is easy to master.

Gravatar Image
Like to play Ukulele and Sudoku Game

Leave a Reply

Your email address will not be published. Required fields are marked *