West Side Story by LFO Ukulele Chords

Posted on

If you are looking for West Side Story ukulele chords, you’ve come to the right site.
You can play versatile instrument West Side Story using ukulele or guitar.
This song by LFO can also be played by that instruments.
=

West Side Story chords has rhythm and included in album.
You can also find other musical genres, including jazz ukulele chords, country music ukulele chords, pop ukulele chords, world music ukulele chords, and rock ukulele chords here.

West Side Story by LFO Ukulele Chords


E|--0-0-0-0---2-2-2-2---0-0-0-0---2-2-2-2--|
B|--0-0-0-0---4-4-4-4---2-2-2-2---4-4-4-4--|
G|--x-x-x-x---4-4-4-4---2-2-2-2---4-4-4-4--|
D|--2-2-2-2---4-4-4-4---2-2-2-2---4-4-4-4--|
A|--2-2-2-2---2-2-2-2---0-0-0-0---2-2-2-2--|
E|--0-0-0-0--------------------------------|

(chorus)
Veronica’s a song that’s in my head
Veronica’s a name i’ve often said
But her friends say she’s too good for me
It’s kinda like a west side story
She’s the only one for me
She’s the only girl i see
Can’t seem to find a damn thing wrong with ya –
Veronica

Everyday, i see her friends talkin’ ’bout me
But i know there’s somethin’ there tha no one can see


E|--0-0-0-0---2-2-2-2---0-0-0-0---2-2-2-2--|
B|--0-0-0-0---4-4-4-4---2-2-2-2---4-4-4-4--|
G|--x-x-x-x---4-4-4-4---2-2-2-2---4-4-4-4--|
D|--2-2-2-2---4-4-4-4---2-2-2-2---4-4-4-4--|
A|--2-2-2-2---2-2-2-2---0-0-0-0---2-2-2-2--|
E|--0-0-0-0--------------------------------|

It reminds me of romeo and juliet
Like we’re livin’ on a movie set
Montague and capulet
Make your daddy sweat cause he wishes we had never met


E |--0--|-----------------2--|
B |--0--|-----------------4--|
G |--x--|-----------------4--|
D |--2--|-----------------4--|
A |--2--|-----------------2--|
E |--0--|--------------------|

She says that i just make her world go round

E |–0–|
B |–2–|
G |–2–|
D |–2–|
A |–0–|
E |—–|
God knows i feel it too

E |–2–|
B |–4–|
G |–4–|
D |–4–|
A |–2–|
E |—–|

I’m so in love, i’m so in love

I’m so in love with you


E|--0-0-0-0---2-2-2-2---0-0-0-0---2-2-2-2--|
B|--0-0-0-0---4-4-4-4---2-2-2-2---4-4-4-4--|
G|--x-x-x-x---4-4-4-4---2-2-2-2---4-4-4-4--|
D|--2-2-2-2---4-4-4-4---2-2-2-2---4-4-4-4--|
A|--2-2-2-2---2-2-2-2---0-0-0-0---2-2-2-2--|
E|--0-0-0-0--------------------------------|

(chorus)
Veronica’s a song that’s in my head
Veronica’s a name i’ve often said
But her friends say she’s too good for me
It’s kinda like a west side story
She’s the only one for me
She’s the only girl i see
Can’t seem to find a damn thing wrong with ya –
Veronica

Your brothers say it’s over now,
They’re lookin’ for me
But i know there’s something there that no one can see


E|--0-0-0-0---2-2-2-2---0-0-0-0---2-2-2-2--|
B|--0-0-0-0---4-4-4-4---2-2-2-2---4-4-4-4--|
G|--x-x-x-x---4-4-4-4---2-2-2-2---4-4-4-4--|
D|--2-2-2-2---4-4-4-4---2-2-2-2---4-4-4-4--|
A|--2-2-2-2---2-2-2-2---0-0-0-0---2-2-2-2--|
E|--0-0-0-0--------------------------------|

It reminds me of romeo and juliet
Like we’re livin’ on a movie set
I’m a shark and you’re a jet
Make your mama sweat cause she wishes we had never met


E |--0--|-----------------2--|
B |--0--|-----------------4--|
G |--x--|-----------------4--|
D |--2--|-----------------4--|
A |--2--|-----------------2--|
E |--0--|--------------------|

She says that i just make her world go round

E |–0–|
B |–2–|
G |–2–|
D |–2–|
A |–0–|
E |—–|
God knows i feel it too

E |–2–|
B |–4–|
G |–4–|
D |–4–|
A |–2–|
E |—–|
I’m so in love with you


E|--0-0-0-0---2-2-2-2---0-0-0-0---2-2-2-2--|
B|--0-0-0-0---4-4-4-4---2-2-2-2---4-4-4-4--|
G|--x-x-x-x---4-4-4-4---2-2-2-2---4-4-4-4--|
D|--2-2-2-2---4-4-4-4---2-2-2-2---4-4-4-4--|
A|--2-2-2-2---2-2-2-2---0-0-0-0---2-2-2-2--|
E|--0-0-0-0--------------------------------|

(chorus)
Veronica’s a song that’s in my head
Veronica’s a name i’ve often said
But her friends say she’s too good for me
It’s kinda like a west side story
She’s the only one for me
She’s the only girl i see
Can’t seem to find a damn thing wrong with ya –
Veronica


E|--0-0-0-0---2-2-2-2---0-0-0-0---2-2-2-2--|
B|--0-0-0-0---4-4-4-4---2-2-2-2---4-4-4-4--|
G|--x-x-x-x---4-4-4-4---2-2-2-2---4-4-4-4--| X2
D|--2-2-2-2---4-4-4-4---2-2-2-2---4-4-4-4--|
A|--2-2-2-2---2-2-2-2---0-0-0-0---2-2-2-2--|
E|--0-0-0-0--------------------------------|

(rap)
Johnny rocket, got her number in my pocket
We was on the run, daddy got a gun
Stop it
Playing with veronica, she got me now
But her brother got a biscuit and it might go pow


E|--0-0-0-0---2-2-2-2---0-0-0-0---2-2-2-2--|
B|--0-0-0-0---4-4-4-4---2-2-2-2---4-4-4-4--|
G|--x-x-x-x---4-4-4-4---2-2-2-2---4-4-4-4--|
D|--2-2-2-2---4-4-4-4---2-2-2-2---4-4-4-4--|
A|--2-2-2-2---2-2-2-2---0-0-0-0---2-2-2-2--|
E|--0-0-0-0--------------------------------|

I’m shakin and bakin and makin the bacon and doin what
You and your crew ain’t doin i’m grabbin the mic
And smackin the mic
And i’m still on beat!!
You can’t stop the bum rush and you can’t stop love,
So it’s time to knuckle up and pray to the lord above


E |--0--|-----------------2--|
B |--0--|-----------------4--|
G |--x--|-----------------4--|
D |--2--|-----------------4--|
A |--2--|-----------------2--|
E |--0--|--------------------|

She said that i just make the world go round

E |–0–|
B |–2–|
G |–2–|
D |–2–|
A |–0–|
E |—–|

God knows i feel it too

E |–2–|
B |–4–|
G |–4–|
D |–4–|
A |–2–|
E |—–|

I’m so in love
With you


E|--0-0-0-0---2-2-2-2---0-0-0-0---2-2-2-2--|
B|--0-0-0-0---4-4-4-4---2-2-2-2---4-4-4-4--|
G|--x-x-x-x---4-4-4-4---2-2-2-2---4-4-4-4--|
D|--2-2-2-2---4-4-4-4---2-2-2-2---4-4-4-4--|
A|--2-2-2-2---2-2-2-2---0-0-0-0---2-2-2-2--|
E|--0-0-0-0--------------------------------|

(chorus)
Veronica’s a song that’s in my head
Veronica’s a name i’ve often said
But her friends say she’s too good for me
It’s kinda like a west side story
She’s the only one for me
She’s the only girl i see
Can’t seem to find a damn thing wrong with ya –
Veronica
Veronica’s a song that’s in my head
Veronica’s a name i’ve often said
But her friends say she’s too good for me
It’s kinda like a west side story
she’s the only one for me
She’s the only girl i see
Can’t seem to find a damn thing wrong with ya –
Veronica

To play the most songs, including West Side Story by LFO by ukulele, the most important basic ukulele chords to learn are C chord, D chord, G chord, and Em chord.
These set you up to play a a lot of songs, and each of them is easy to learn.

Leave a Reply

Your email address will not be published.