What a Horrible Night to Have a Curse by The Black Dahlia Murder Ukulele Chords

Posted on

If you are looking for What a Horrible Night to Have a Curse ukulele chords, you’ve visit to the best site.
You can play versatile instrument What a Horrible Night to Have a Curse using ukulele or guitar.
This song by The Black Dahlia Murder can also be played by that instruments.
=

What a Horrible Night to Have a Curse chords has rhythm and included in Nocturnal (2007) album.
You can also find another musical genres, including jazz ukulele chords, country music ukulele chords, pop ukulele chords, world music ukulele chords, and rock ukulele chords here.

What a Horrible Night to Have a Curse by The Black Dahlia Murder Ukulele Chords

The Black Dahlia Murder

What a Horrible Night to Have a Curse

Nocturnal

(GTR1 – SOLO)
(GTR2 – RHYTHM)
Press CTRL+F & enter one of the above code… Things…


-----------------------------------------------------------------------------

Okay, so this is basically another Guitar Pro – text transfer, much like my
Necropolis tab. I do this because I know how much it blows when there are a bunch
of shitty tabs for a song, but seventeen awesome Guitar Pro tabs while not owning
Guitar Pro. Some people (younger players like me) can’t afford Guitar Pro, and so
are kind of fucked when it comes to getting it right.

Keep in mind that this is transferred: in no way do I claim ownership of said
tabs, nor do I claim to have transcribed the song in question.

All credit for this tab goes to – Yoann Philippe


-----------------------------------------------------------------------------

(GTR1 – SOLO)

What A Horrible Night To Have A Curse

The Black Dahlia Murder
Solo

PM PM PM PM PM PM PM PM PM PM PM PM
S S E S S E Q S S E S S E Q


C ||------------------------------------------------|
G ||------------------------------------------------|
D#||------------------------------------------------|
A#||------------------------------------------------|
F ||--------------------4---------------------------|
C ||--1--1--1--1--1--1--2----1--1--1--1--1--1--1----|

PM PM PM PM PM PM PM PM PM PM PM PM
S S E S S E Q S S E S S E Q


------------------------------------------------|
------------------------------------------------|
------------------------------------------------|
------------------------------------------------|
--------------------4----------------------2----|
--1--1--1--1--1--1--2----1--1--1--1--1--1-------|

PM PM PM PM PM PM PM PM PM PM PM PM
S S E S S E Q S S E S S E Q


------------------------------------------------|
------------------------------------------------|
------------------------------------------------|
------------------------------------------------|
--------------------4---------------------------|
--1--1--1--1--1--1--2----1--1--1--1--1--1--1----|

PM PM PM PM PM PM PM PM PM PM PM PM
S S E S S E Q S S E S S E Q


------------------------------------------------|
------------------------------------------------|
------------------------------------------------|
------------------------------------------------|
--------------------4----------------------2----|
--1--1--1--1--1--1--2----1--1--1--1--1--1-------|

PM PM PM PM PM PM PM PM PM PM PM PM
S S E S S E Q S S E S S E Q


------------------------------------------------|
------------------------------------------------|
------------------------------------------------|
------------------------------------------------|
-------------------------------------------4----|
--1--1--1--1--1--1-------1--1--1--1--1--1--2----|

PM PM PM PM PM PM PM PM PM PM PM PM
S S E S S E Q S S E S S E Q


------------------------------------------------|
------------------------------------------------|
------------------------------------------------|
------------------------------------------------|
-------------------------------------------4----|
--1--1--1--1--1--1--1----1--1--1--1--1--1--2----|

PM PM PM PM PM PM
S S E S S E Q Q Q Q


----------------------------------------|
----------------------------------------|
----------------------------------------|
----------------------------------------|
--------------------4----3----7----4----|
--1--1--1--1--1--1--2----1----5----2----|

PM PM PM PM PM PM PM PM PM PM PM PM
S S E S S E Q S S E S S E Q


------------------------------------------------|
------------------------------------------------|
------------------------------------------------|
------------------------------------------------|
-------------------------------------------4----|
--1--1--1--1--1--1--1----1--1--1--1--1--1--2----|

PM PM PM PM PM PM PM PM PM PM PM PM PM PM PM
S S E S S E S S E S S E S S E Q


----------------------------------------------------|
----------------------------------------------------|
----------------------------------------------------|
----------------------------------------------------|
-----------------------------------------------4----|
--1--1--1--1--1--1--2--2--2--1--1--1--5--5--5--2----|

PM PM PM PM PM PM PM PM PM PM PM PM
S S E S S E Q S S E S S E Q


------------------------------------------------|
------------------------------------------------|
------------------------------------------------|
------------------------------------------------|
-------------------------------------------4----|
--1--1--1--1--1--1--1----1--1--1--1--1--1--2----|

PM PM PM PM PM PM
S S E S S E Q Q Q Q


----------------------------------------|
----------------------------------------|
----------------------------------------|
----------------------------------------|
--------------------4----3----7----4----|
--1--1--1--1--1--1--2----1----5----2----|

PM PM PM PM PM PM PM PM PM PM PM PM
S S E S S E Q S S E S S E Q


------------------------------------------------|
------------------------------------------------|
------------------------------------------------|
------------------------------------------------|
-------------------------------------------4----|
--1--1--1--1--1--1--1----1--1--1--1--1--1--2----|

PM PM PM PM PM PM PM PM PM PM PM PM PM PM PM
S S E S S E S S E S S E S S E


-----------------------------------------------|
-----------------------------------------------|
-----------------------------------------------|
-----------------------------------------------|
-----------------------------------------------|
--1--1--1--1--1--1--2--2--2--1--1--1--5--5--5--|

PM PM PM PM PM PM PM PM PM PM PM PM
S S E S S E Q S S E S S E Q


------------------------------------------------|
------------------------------------------------|
------------------------------------------------|
-------------------------------------------6----|
--------------------7----------------------4----|
--4--4--4--4--4--4--5----4--4--4--4--4--4-------|

PM PM PM PM PM PM
S S E S S E Q Q Q Q


----------------------------------------|
----------------------------------------|
----------------------------------------|
--------------------7----7----6----7----|
--------------------5----5----4----7----|
--4--4--4--4--4--4--5----5----4----5----|

PM PM PM PM PM PM PM PM PM PM PM PM
S S E S S E Q S S E S S E Q


------------------------------------------------|
------------------------------------------------|
------------------------------------------------|
-------------------------------------------6----|
--------------------7----------------------4----|
--4--4--4--4--4--4--5----4--4--4--4--4--4-------|

PM PM PM PM PM PM
S S E S S E Q Q Q Q


----------------------------------------|
----------------------------------------|
----------------------------------------|
--------------------7----7----6---------|
--------------------5----5----4----3----|
--4--4--4--4--4--4--5----5----4----1----|

PM PM PM PM PM PM PM PM PM PM PM PM
Q S S E S S E Q S S E S S E


------------------------------------------------|
------------------------------------------------|
------------------------------------------------|
------------------------------------------------|
--4----------------------6----------------------|
--2----1--1--1--1--1--1--4----1--1--1--1--1--1--|

PM PM PM PM PM PM PM PM PM PM PM PM
Q S S E S S E Q S S E S S E


------------------------------------------------|
------------------------------------------------|
------------------------------------------------|
------------------------------------------------|
--4---------------------------------------------|
--2----1--1--1--1--1--1-------1--1--1--1--1--1--|

PM PM PM PM PM PM PM PM PM PM PM PM
Q S S E S S E Q S S E S S E


------------------------------------------------|
------------------------------------------------|
------------------------------------------------|
------------------------------------------------|
--4----------------------6----------------------|
--2----1--1--1--1--1--1--4----1--1--1--1--1--1--|

PM PM PM PM PM PM PM PM PM PM PM
Q S S E S S E E E E E E E


---------------------------------------------|
---------------------------------------------|
---------------------------------------------|
---------------------------------------------|
--4----------------------4s--3-----7s--6-----|
--2----1--1--1--1--1--1--2s--1--1--5s--4--1--|

PM PM PM PM PM PM PM PM PM PM PM PM
Q S S E S S E Q S S E S S E


------------------------------------------------|
------------------------------------------------|
------------------------------------------------|
------------------------------------------------|
--4----------------------6----------------------|
--2----1--1--1--1--1--1--4----1--1--1--1--1--1--|

Q H E Q. Q


----------------------------------|
----------------------------------|
----------------------------------|
----------------------------------|
--4----3S--------(x)--------------|
--2----1S--------(x)--------------|

PM PM PM PM PM PM PM PM PM PM PM PM
S S E S S E Q S S E S S E Q


------------------------------------------------|
------------------------------------------------|
------------------------------------------------|
--------------------4----------------------6----|
--------------------2----------------------4----|
--1--1--1--1--1--1-------1--1--1--1--1--1-------|

PM PM PM PM PM PM PM


---------------------------------------|--------------------------------------|
---------------------------------------|--------------------------------------|
---------------------------------------|--------------------------------------|
---------------------------------------|--------------------------------------|
--4s--5--4-----4--2--------------4-----|--------------2-----------------2-----|
------------7--------5--7--5--7-----4--|--4--1--4--1-----1--4--1--4--1-----1--|


--------------------------------------|--------------------------------------|
--------------------------------------|--------------------------------------|
--------------------------------------|--------------------------------------|
--------------------------------------|--------------------------------------|
--------------4-----------------4-----|--------------5-----------------5-----|
--5--2--5--2-----2--5--2--5--2-----2--|--7--4--7--4-----4--7--4--7--4-----4--|

PM PM PM PM PM PM PM PM PM PM
E E E E E E E E S S E S S E


--------------------------------------------|
--------------------------------------------|
--------------------------------------------|
--------------------------------------------|
--5-----4-----2-----4-----------------------|
-----2-----2-----2-----2--2--2--2--2--2--2--|


--------------------------------------|--------------------------------------|
--------------------------------------|--------------------------------------|
--------------------------------------|--------------------------------------|
--------------------------------------|--------------------------------------|
--------------------------------------|--4--0--4--0--5--0--4--0--4--0--5--0--|
--7--4--7--4--5--4--7--4--7--4--5--4--|--------------------------------------|


--------------------------------------|---------------------------------------|
--------------------------------------|---------------------------------------|
--------------------------------------|--------------4-----------------4s--6--|
--------------4-----------------4-----|--6--3--6--3-----3--6--3--6--3---------|
--5--2--5--2-----2--5--2--5--2-----2--|---------------------------------------|
--------------------------------------|---------------------------------------|

PM PM PM PM PM PM PM PM PM PM PM PM
Q S S E S S E Q S S E S S E


------------------------------------------------|
------------------------------------------------|
------------------------------------------------|
------------------------------------------------|
--4----------------------6----------------------|
--2----1--1--1--1--1--1--4----1--1--1--1--1--1--|

PM PM PM PM PM PM PM PM PM PM PM PM PM PM PM
Q S S E S S E S S E S S E S S E


----------------------------------------------------|
----------------------------------------------------|
----------------------------------------------------|
----------------------------------------------------|
--4-------------------------------------------------|
--2----1--1--1--1--1--1--1--1--1--1--1--1--1--1--1--|

PM PM PM PM PM PM PM PM PM PM PM PM
Q S S E S S E Q S S E S S E


------------------------------------------------|
------------------------------------------------|
------------------------------------------------|
------------------------------------------------|
--4----------------------6----------------------|
--2----1--1--1--1--1--1--4----1--1--1--1--1--1--|

PM PM PM PM PM PM PM PM PM PM PM PM
Q S S E S S E Q S S E S S E


------------------------------------------------|
------------------------------------------------|
------------------------------------------------|
------------------------------------------------|
--4---------------------------------------------|
--2----1--1--1--1--1--1-------1--1--1--1--1--1--|

PM PM PM PM PM PM PM PM PM PM PM PM
Q S S E S S E Q S S E S S E


------------------------------------------------|
------------------------------------------------|
------------------------------------------------|
------------------------------------------------|
--4----------------------6----------------------|
--2----1--1--1--1--1--1--4----1--1--1--1--1--1--|

PM PM PM PM PM PM PM PM PM PM PM PM
Q S S E S S E Q S S E S S E


------------------------------------------------|
------------------------------------------------|
------------------------------------------------|
------------------------------------------------|
------------------------------------------------|
--4----1--1--1--1--1--1--2----1--1--1--1--1--1--|

PM PM PM PM PM PM PM PM PM PM PM PM
Q S S E S S E Q S S E S S E


------------------------------------------------|
------------------------------------------------|
------------------------------------------------|
------------------------------------------------|
--4----------------------6----------------------|
--2----1--1--1--1--1--1--4----1--1--1--1--1--1--|

PM PM PM PM PM PM PM PM PM PM PM PM
Q S S E S S E Q S S E S S E


------------------------------------------------|
------------------------------------------------|
------------------------------------------------|
------------------------------------------------|
--4---------------------------------------------|
--2----1--1--1--1--1--1-------1--1--1--1--1--1--|

PM PM PM PM PM PM PM PM PM PM PM PM
S S E S S E Q S S E S S E Q


|-------------------------------------------------|
|-------------------------------------------------|
|------------------------------------------------|
|-------------------------------------------6----|
|---------------------7----------------------4----|
|---4--4--4--4--4--4--5----4--4--4--4--4--4-------|

PM PM PM PM PM PM
S S E S S E Q Q Q Q


----------------------------------------|
----------------------------------------|
----------------------------------------|
--------------------7----7----6----7----|
--------------------5----5----4----7----|
--4--4--4--4--4--4--5----5----4----5----|

PM PM PM PM PM PM PM PM PM PM PM PM
S S E S S E Q S S E S S E Q


------------------------------------------------|
------------------------------------------------|
------------------------------------------------|
-------------------------------------------6----|
--------------------7----------------------4----|
--4--4--4--4--4--4--5----4--4--4--4--4--4-------|

PM PM PM PM PM PM
S S E S S E Q Q Q Q


-----------------------------------------||
-----------------------------------------||
----------------------------------------||
--------------------7----7----6---------||
--------------------5----5----4----3-----||
--4--4--4--4--4--4--5----5----4----1-----||

PM PM PM PM PM PM
S S E S S E Q Q Q Q


----------------------------------------|
----------------------------------------|
----------------------------------------|
--------------------7----7----6---------|
--------------------5----5----4----3----|
--4--4--4--4--4--4--5----5----4----1----|

PM PM PM PM PM PM PM PM PM PM PM PM


|---------------------------------------|--------------------------------------|
|---------------------------------------|--------------------------------------|
|--------------------------------------|--------------------------------------|
|--------------------------------------|--------------------------------------|
|---------------------------4-----------|--------------------------------------|
|---5--2--5--2--5--2--5--2-----2--5--2--|--4--0--4--0--4--0--4--0--5--0--4--0--|

PM PM PM PM PM PM PM PM PM PM PM PM


--------------------------------------|--------------------------------------|
--------------------------------------|--------------------------------------|
--------------------------------------|--------------------------------------|
--------------------------------------|--------------------------------------|
--4--0--4--0--4--0--7--0--5--0--4--0--|--2-----2-----2-----4-----2-----------|
--------------------------------------|-----0-----0-----0-----0-----0--4--0--|

PM PM PM PM PM PM PM PM PM PM PM PM


--------------------------------------|--------------------------------------|
--------------------------------------|--------------------------------------|
--------------------------------------|--------------------------------------|
--------------------------------------|--------------------------------------|
--------------------------4-----------|--------------------------------------|
--5--2--5--2--5--2--5--2-----2--5--2--|--4--0--4--0--4--0--5--0--4--0--2--0--|

PM PM PM PM PM PM PM PM PM PM PM PM


--------------------------------------|---------------------------------------||
--------------------------------------|---------------------------------------||
--------------------------------------|--------------------------------------||
--------------------------------------|--------------------------------------||
--------------------------2-----------|---------------------------------------||
--4--1--4--1--4--1--4--1-----1--4--1--|--5--2--5--2--5--2--5--2--5--2--5--2---||

S S S S S S S S S S S S S S S S S S S S S S S S


-----------------------------------------------------------------------|
-----------------------------------------------------------------------|
----------------------------------------------------------------------|
--12-12-12-12-12-12-12-12-12-12-12-12-11-11-11-11-11-11-11-11-9-9-9-9-|
-----------------------------------------------------------------------|
-----------------------------------------------------------------------|

PM PM PM PM PM PM PM PM PM PM PM PM PM PM PM
Q S S E S S E S S E S S E S S E


------------------------------------------------------|
------------------------------------------------------|
------------------------------------------------------|
------------------------------------------------------|
--11-------------------------------------------------|
---------1--1--1--1--1--1--1--1--1--1--1--1--1--1--1--|

S S S S S S S S S S S S S S S S S S S S S S S S


------------------------------------------------------------------|
------------------------------------------------------------------|
------------------------------------------------------------------|
--11-11-11-11-11-11-11-11-11-11-11-11-9-9-9-9-9-9-9-9-------------|
------------------------------------------------------11-11-11-11-|
------------------------------------------------------------------|

PM PM PM PM PM PM PM PM PM PM PM PM PM PM PM
Q S S E S S E S S E S S E S S E


-------------------------------------------------------||
-------------------------------------------------------||
------------------------------------------------------||
------------------------------------------------------||
--12--------------------------------------------------||
---------2--2--2--2--2--2--2--2--2--2--2--2--2--2--2---||

PM
H. Q Q Q W.


------------------------------|--------------------|
------------------------------|--------------------|
------------------------------|--------------------|
--7------------7---------7----|--10----------------|
--5------------5----4----5----|---8----------------|
--5------------5----4----5----|---8----------------|


-----9---------------------------------|-----9---------------------------------|
--7-----10--9--10--9--10--9--7~--------|--7-----10--9--10--9--10--9--7~--------|
---------------------------------------|---------------------------------------|
---------------------------------------|---------------------------------------|
---------------------------------------|---------------------------------------|
---------------------------------------|---------------------------------------|

E E H E E H S Q S Q. H.


------------------------------------|----------------------------------|
------------------------------------|----------------------------------|
--6s--7--6~--------6s--7--6~--------|--6s-9~----L-L------7~------------|
------------------------------------|----------------------------------|
------------------------------------|----------------------------------|
------------------------------------|----------------------------------|


-----9---------------------------------|
--7-----10--9--10--9--10--9--7~--------|
---------------------------------------|
---------------------------------------|
---------------------------------------|
---------------------------------------|

E E E E E E E E E E Q


------------7--9--10--9--7------7---------|
--7--9--10------------------10-----10----|
------------------------------------------|
------------------------------------------|
------------------------------------------|
------------------------------------------|
|---3---| |---3---| |---3--| |---3--| |---3---| |---3---|


-------------9--10--12--10--9s--7--9--7-----------------9--10--12--|
--9--10--12------------------------------10--9--10--12-------------|
-------------------------------------------------------------------|
-------------------------------------------------------------------|
-------------------------------------------------------------------|
-------------------------------------------------------------------|
|---3---| |---3---| |---3---| |---3--| |---3---| |---3---|


--------------10--12--14--12--10s--9--10--9------------------10--12--14--|
--10--12--14---------------------------------12--10--12--14--------------|
-------------------------------------------------------------------------|
-------------------------------------------------------------------------|
-------------------------------------------------------------------------|
-------------------------------------------------------------------------|


----------9--10--9--------------9--10--9------|
------10------------10------10------------10--|
--11--------------------11--------------------|
----------------------------------------------|
----------------------------------------------|
----------------------------------------------|

E E E E E E E E E S S E E


----------9--10--9--10--13--10--9--10p-9-----9--|
------10---------------------------------12-----|
--11--------------------------------------------|
------------------------------------------------|
------------------------------------------------|
------------------------------------------------|


---------7--9--7------------7--9--7-----|
------9-----------9------9-----------9--|
--10-----------------10-----------------|
----------------------------------------|
----------------------------------------|
----------------------------------------|

E E E E E E E E E S S E E


---------7--9--7--9--10--9--7--9p-7-----7--|
------9-----------------------------10-----|
--10---------------------------------------|
-------------------------------------------|
-------------------------------------------|
-------------------------------------------|


----------9--10--9-------------9--10--9------|
------10------------10--7--10------------10--|
--11-----------------------------------------|
---------------------------------------------|
---------------------------------------------|
---------------------------------------------|

|—3–|
E E E E E E E E E S S E E E


---------9--10--9--10--13--10--9--10p-9p-7--9s--7--|
--7--10--------------------------------------------|
---------------------------------------------------|
---------------------------------------------------|
---------------------------------------------------|
---------------------------------------------------|
|---3--| |----3---| |---3--| |---3--| |---3--| |--3--|


------7-----------------------------------------------------------|
--10-----10--9h--10p--9s--7--9p--7------7-------------------------|
------------------------------------10-----10--6--10--6-----6-----|
---------------------------------------------------------9-----9--|
------------------------------------------------------------------|
------------------------------------------------------------------|
|--3--| |--3--| |--3--|

E E E E E E E E E H.


-------------------------------------------|
-------------------------------------------|
-------------------------------------------|
--6--9--6-----6----------------------------|
-----------9-----9--8--9--8----------------|
-----------------------------9~------------|

PM PM PM PM PM PM PM


----------------------------------------|
----------------------------------------|
----------------------------------------|
----------------------------------------|
--4-----------------4s--3-----7s--6-----|
-----2--5--2--1--1--2s--1--1--5s--4--1--|

PM PM PM PM PM PM PM PM PM PM PM
E E E E E E S S E S S E Q


-------------------------------------------|
-------------------------------------------|
-------------------------------------------|
-------------------------------------------|
--4-----------------3--3--3--3--3--3-------|
-----2--5--2--1--1--1--1--1--1--1--1--4----|

PM PM PM PM PM PM PM PM PM PM PM PM PM PM PM PM


----------------------------------------|--------------------------------------|
----------------------------------------|--------------------------------------|
----------------------------------------|--------------------------------------|
----------------------------------------|--------------------------------------|
--4-----------------4s--3-----7s--6-----|--4-----------------------------4-----|
-----2--5--2--1--1--2s--1--1--5s--4--1--|-----2--5--2--1--1--7--5--7--5-----4--|

PM PM PM PM PM PM PM


----------------------------------------|
----------------------------------------|
----------------------------------------|
----------------------------------------|
--4-----------------4s--3-----7s--6-----|
-----2--5--2--1--1--2s--1--1--5s--4--1--|

PM PM PM PM PM PM PM PM PM PM PM
E E E E E E S S E S S E Q


-------------------------------------------|
-------------------------------------------|
-------------------------------------------|
-------------------------------------------|
--4-----------------3--3--3--3--3--3-------|
-----2--5--2--1--1--1--1--1--1--1--1--4----|

PM PM PM PM PM PM PM PM PM PM PM PM PM PM PM PM


----------------------------------------|--------------------------------------|
----------------------------------------|--------------------------------------|
----------------------------------------|--------------------------------------|
----------------------------------------|--------------------------------3--6--|
--4-----------------4s--3-----7s--6-----|--4-----------------------2--5--------|
-----2--5--2--1--1--2s--1--1--5s--4--1--|-----2--5--2--1--1--1--4--------------|

PM PM PM PM PM PM PM PM PM PM PM PM
S S E S S E Q S S E S S E Q


|-------------------------------------------------|
|-------------------------------------------------|
|------------------------------------------------|
|-------------------------------------------6----|
|---------------------7----------------------4----|
|---4--4--4--4--4--4--5----4--4--4--4--4--4-------|

PM PM PM PM PM PM
S S E S S E Q Q Q Q


----------------------------------------|
----------------------------------------|
----------------------------------------|
--------------------7----7----6----7----|
--------------------5----5----4----7----|
--4--4--4--4--4--4--5----5----4----5----|

PM PM PM PM PM PM PM PM PM PM PM PM
S S E S S E Q S S E S S E Q


------------------------------------------------|
------------------------------------------------|
------------------------------------------------|
-------------------------------------------6----|
--------------------7----------------------4----|
--4--4--4--4--4--4--5----4--4--4--4--4--4-------|

PM PM PM PM PM PM
S S E S S E Q Q Q Q


-----------------------------------------||
-----------------------------------------||
----------------------------------------||
--------------------7----7----6---------||
--------------------5----5----4----3-----||
--4--4--4--4--4--4--5----5----4----1-----||

PM PM PM PM PM PM
S S E S S E Q Q Q Q


----------------------------------------|
----------------------------------------|
----------------------------------------|
--------------------7----7----6---------|
--------------------5----5----4----3----|
--4--4--4--4--4--4--5----5----4----1----|

PM PM PM PM PM PM PM PM PM PM PM PM


|---------------------------------------|--------------------------------------|
|---------------------------------------|--------------------------------------|
|--------------------------------------|--------------------------------------|
|--------------------------------------|--------------------------------------|
|---------------------------4-----------|--------------------------------------|
|---5--2--5--2--5--2--5--2-----2--5--2--|--4--0--4--0--4--0--4--0--5--0--4--0--|

PM PM PM PM PM PM PM PM PM PM PM PM


--------------------------------------|--------------------------------------|
--------------------------------------|--------------------------------------|
--------------------------------------|--------------------------------------|
--------------------------------------|--------------------------------------|
--4--0--4--0--4--0--7--0--5--0--4--0--|--2-----2-----2-----4-----2-----------|
--------------------------------------|-----0-----0-----0-----0-----0--4--0--|

PM PM PM PM PM PM PM PM PM PM PM PM


--------------------------------------|--------------------------------------|
--------------------------------------|--------------------------------------|
--------------------------------------|--------------------------------------|
--------------------------------------|--------------------------------------|
--------------------------4-----------|--------------------------------------|
--5--2--5--2--5--2--5--2-----2--5--2--|--4--0--4--0--4--0--5--0--4--0--2--0--|

PM PM PM PM PM PM PM PM PM PM PM PM


--------------------------------------|---------------------------------------||
--------------------------------------|---------------------------------------||
--------------------------------------|--------------------------------------||
--------------------------------------|--------------------------------------||
--------------------------2-----------|---------------------------------------||
--4--1--4--1--4--1--4--1-----1--4--1--|--5--2--5--2--5--2--5--2--5--2--5--2---||

S S S S S S S S S S S S S S S S S S S S S S S S


-----------------------------------------------------------------------|
-----------------------------------------------------------------------|
----------------------------------------------------------------------|
--12-12-12-12-12-12-12-12-12-12-12-12-11-11-11-11-11-11-11-11-9-9-9-9-|
-----------------------------------------------------------------------|
-----------------------------------------------------------------------|

PM PM PM PM PM PM PM PM PM PM PM PM PM PM PM
Q S S E S S E S S E S S E S S E


------------------------------------------------------|
------------------------------------------------------|
------------------------------------------------------|
------------------------------------------------------|
--11-------------------------------------------------|
---------1--1--1--1--1--1--1--1--1--1--1--1--1--1--1--|

S S S S S S S S S S S S S S S S S S S S S S S S


------------------------------------------------------------------|
------------------------------------------------------------------|
------------------------------------------------------------------|
--11-11-11-11-11-11-11-11-11-11-11-11-9-9-9-9-9-9-9-9-------------|
------------------------------------------------------11-11-11-11-|
------------------------------------------------------------------|

PM PM PM PM PM PM PM PM PM PM PM PM PM PM PM
Q S S E S S E S S E S S E S S E


-------------------------------------------------------||
-------------------------------------------------------||
------------------------------------------------------||
------------------------------------------------------||
--12--------------------------------------------------||
---------2--2--2--2--2--2--2--2--2--2--2--2--2--2--2---||

PM
H. Q Q Q W.


------------------------------|--------------------|
------------------------------|--------------------|
------------------------------|--------------------|
--7------------7---------7----|--10----------------|
--5------------5----4----5----|---8----------------|
--5------------5----4----5----|---8----------------|

PM PM PM PM PM PM PM PM PM PM PM PM
Q S S E S S E Q S S E S S E


------------------------------------------------|
------------------------------------------------|
------------------------------------------------|
------------------------------------------------|
--4---------------------------------------------|
--2----1--1--1--1--1--1--1----1--1--1--1--1--1--|

PM PM PM PM PM PM
Q S S E S S E Q Q Q


----------------------------------------|
----------------------------------------|
----------------------------------------|
----------------------------------------|
--4----------------------4----3----7----|
--2----1--1--1--1--1--1--2----1----5----|

PM PM PM PM PM PM PM PM PM PM PM PM
Q S S E S S E Q S S E S S E


------------------------------------------------|
------------------------------------------------|
------------------------------------------------|
------------------------------------------------|
--4---------------------------------------------|
--2----1--1--1--1--1--1--1----1--1--1--1--1--1--|

PM PM PM PM PM PM PM PM PM PM PM PM PM PM PM
Q S S E S S E S S E S S E S S E


----------------------------------------------------|
----------------------------------------------------|
----------------------------------------------------|
----------------------------------------------------|
--4-------------------------------------------------|
--2----1--1--1--1--1--1--2--2--2--1--1--1--5--5--5--|

PM PM PM PM PM PM PM PM PM PM PM PM
Q S S E S S E Q S S E S S E


------------------------------------------------|
------------------------------------------------|
------------------------------------------------|
------------------------------------------------|
--4---------------------------------------------|
--2----1--1--1--1--1--1--1----1--1--1--1--1--1--|

PM PM PM PM PM PM
Q S S E S S E Q Q Q


----------------------------------------|
----------------------------------------|
----------------------------------------|
----------------------------------------|
--4----------------------4----3----7----|
--2----1--1--1--1--1--1--2----1----5----|

PM PM PM PM PM PM PM PM PM PM PM PM
Q S S E S S E Q S S E S S E


------------------------------------------------|
------------------------------------------------|
------------------------------------------------|
------------------------------------------------|
--4---------------------------------------------|
--2----1--1--1--1--1--1--1----1--1--1--1--1--1--|

PM PM PM PM PM PM PM PM PM PM PM PM PM PM PM
Q S S E S S E S S E S S E S S E


----------------------------------------------------|
----------------------------------------------------|
----------------------------------------------------|
----------------------------------------------------|
--4-------------------------------------------------|
--2----1--1--1--1--1--1--2--2--2--1--1--1--5--5--5--|

E W Q.


-----------------------------|---------||
-----------------------------|---------||
-----------------------------|---------||
-----------------------------|---------||
--3--------------------------|---------||
--1--------------------------|---------||

Duration Legend


---------------

W – whole
H – half
Q – quarter
E – 8th
S – 16th
T – 32nd
X – 64th
. – note dotted
|-n-| – n-tuplets

Tablature Legend


----------------

L – tied note
x – dead note
g – grace note
(n) – ghost note
> – accentuded note
NH – natural harmonic
AH – artificial harmonic
TH – tapped harmonic
SH – semi harmonic
PH – pitch harmonic
h – hammer on
p – pull off
b – bend
br – bendRelease
pb – preBend
pbr – preBendRelease
brb – bendReleaseBend
n/ – tremolo bar dip
n – tremolo bar dive
-/n – tremolo bar Release up
/n – tremolo bar inverted dip
/n – tremolo bar return
-n – tremolo bar Release down
S – shift slide
s – legato slide
/ – slide into from below or out of upwards
– slide into from above or out of downwards
~ – vibrato
W – wide vibrato
tr – trill
TP – tremolo picking
T – tapping
S – slap
P – pop
^ – brush up
v – brush down


-----------------------------------------------------------------------------

(GTR2 – RHYTHM)

What A Horrible Night To Have A Curse

The Black Dahlia Murder
Piste 4

PM PM PM PM PM PM PM PM PM PM PM PM
S S E S S E Q S S E S S E Q


C ||------------------------------------------------|
G ||------------------------------------------------|
D#||------------------------------------------------|
A#||------------------------------------------------|
F ||--------------------4---------------------------|
C ||--1--1--1--1--1--1--2----1--1--1--1--1--1--4----|

PM PM PM PM PM PM PM PM PM PM PM PM
S S E S S E Q S S E S S E Q


------------------------------------------------|
------------------------------------------------|
------------------------------------------------|
------------------------------------------------|
--------------------4---------------------------|
--1--1--1--1--1--1--2----1--1--1--1--1--1--4----|

PM PM PM PM PM PM PM PM PM PM PM PM
S S E S S E Q S S E S S E Q


------------------------------------------------|
------------------------------------------------|
------------------------------------------------|
------------------------------------------------|
--------------------4---------------------------|
--1--1--1--1--1--1--2----1--1--1--1--1--1--4----|

PM PM PM PM PM PM PM PM PM PM PM PM
S S E S S E Q S S E S S E Q


------------------------------------------------|
------------------------------------------------|
------------------------------------------------|
------------------------------------------------|
--------------------4---------------------------|
--1--1--1--1--1--1--2----1--1--1--1--1--1--4----|

PM PM PM PM PM PM PM PM PM PM PM PM
S S E S S E Q S S E S S E Q


------------------------------------------------|
------------------------------------------------|
------------------------------------------------|
------------------------------------------------|
-------------------------------------------4----|
--1--1--1--1--1--1-------1--1--1--1--1--1--2----|

PM PM PM PM PM PM PM PM PM PM PM PM
S S E S S E Q S S E S S E Q


------------------------------------------------|
------------------------------------------------|
------------------------------------------------|
------------------------------------------------|
-------------------------------------------4----|
--1--1--1--1--1--1--4----1--1--1--1--1--1--2----|

PM PM PM PM PM PM
S S E S S E Q Q Q Q


----------------------------------------|
----------------------------------------|
----------------------------------------|
----------------------------------------|
--------------------4----3----7----4----|
--1--1--1--1--1--1--2----1----5----2----|

PM PM PM PM PM PM PM PM PM PM PM PM
S S E S S E Q S S E S S E Q


------------------------------------------------|
------------------------------------------------|
------------------------------------------------|
------------------------------------------------|
-------------------------------------------4----|
--1--1--1--1--1--1--4----1--1--1--1--1--1--2----|

PM PM PM PM PM PM PM PM PM PM PM PM PM PM PM
S S E S S E S S E S S E S S E Q


----------------------------------------------------|
----------------------------------------------------|
----------------------------------------------------|
----------------------------------------------------|
-----------------------------------------------4----|
--1--1--1--1--1--1--2--2--2--1--1--1--5--5--5--2----|

PM PM PM PM PM PM PM PM PM PM PM PM
S S E S S E Q S S E S S E Q


------------------------------------------------|
------------------------------------------------|
------------------------------------------------|
------------------------------------------------|
-------------------------------------------4----|
--1--1--1--1--1--1--4----1--1--1--1--1--1--2----|

PM PM PM PM PM PM
S S E S S E Q Q Q Q


----------------------------------------|
----------------------------------------|
----------------------------------------|
----------------------------------------|
--------------------4----3----7----4----|
--1--1--1--1--1--1--2----1----5----2----|

PM PM PM PM PM PM PM PM PM PM PM PM
S S E S S E Q S S E S S E Q


------------------------------------------------|
------------------------------------------------|
------------------------------------------------|
------------------------------------------

To play the most songs, including What a Horrible Night to Have a Curse by The Black Dahlia Murder by ukulele, the most important basic ukulele chords to learn are C chord, D chord, G chord, and Em chord.
These set you up to play a ton of songs, and each of them is easy to learn.

Leave a Reply

Your email address will not be published.