What About Everything? by Carbon Leaf Ukulele Chords

Posted on

If you are searching for What About Everything? ukulele chords, you’ve come to the right site.
You can play versatile instrument What About Everything? using ukulele or guitar.
This song by Carbon Leaf can also be played by that instruments.
=

What About Everything? chords has rhythm and included in Indian Summer (2004) album.
You can also get other musical style, including jazz ukulele chords, country music ukulele chords, pop ukulele chords, world music ukulele chords, and rock ukulele chords here.

What About Everything? by Carbon Leaf Ukulele Chords


What About Everything? By Carbon Leaf
This is my first tab, but i am pretty sure it is correct. It is basically a
revision of oriolesazb’s,
but with a couple changes and a capo, which makes life so much easier
-carter72

____________________________________________________

Tuning: EADGBe CAPO 1 Tab relative to the capo

Intro x2


e|-3-x-x-x-x-3|
B|-3-x-x-x-x-3|
G|------------|
D|------------|
A|------------|
E|------------|

Verse
Holiday quiet on these streets, except for some stubborn leaves
That didn’t fall with the fall, and now they clatter in vain
Holiday sky. Midnight clear. Wind is high, hard to steer
Old muffler rumbles like an old fighter plane
In search of some rest. In search of a break

Where something’s always so far
What about my broken car?
What about my life so far?
What about my dream?

What about,

Chorus

What about everything?
What about aeroplanes?
And what about ships that drank the sea?

What about…
What about the moon and stars?
What about soldier battle scars
And all the anger that they eat?
I am not in need.

Verse 2
Get away and come with me.
Come away with me and we’ll see
If I was right on that night, that a future was made
Before time takes each year, like a knife cuts it clear
It’s school, then work and then life that just sharpens the blade
I think about time for fun. I think about time for play
Then I think about being done, with no resume

With no one left to blame
What about fortune and fame?
What about your love to obtain?

What about the ring?

What about,

Chorus

Bridge/Solo


e|---------------------------------------------------|
B|-------------------------12/13-12------------------|
G|----12----12/14-12----12----------12---------------|
D|-12----12----------12----------------14-12-10--9---|
A|-------------------------------------------------10|
E|---------------------------------------------------|
e|---------------------------------|
B|-------15-13-12----12-13-10------|
G|----12----------14----------14-12|
D|---------------------------------|
A|-14------------------------------|
E|---------------------------------|

Verse 3

Holiday quiet on these streets, except for some reason me
The hometown harbor lights bright, the sailboats clatter in vain
Holiday sky. Midnight clear. Wind is high on this pier
I find it hard to complain when compared with what about…

Outro
What about everything?
What about aeroplanes?
And what about ships that drank the sea?

What about…
What about the moon and stars?
What about soldier battle scars
And all the anger that they eat?

What about…
What about aliens?
What about you and me and…
What about gold beneath the sea?
What about
What about when buildings fall?
What about that midnight phone call…
The one that wakes you from your peace?
Well, I am not, I am not, I am not in need

Guitar licks during outro:

After…And what about ships that drank the sea?


e|----------------|
B|-----3----------|
G|-2/4---4-2------|
D|-----------5-2-5|
A|----------------|
E|----------------|

After…And all the anger that they eat?

(Octaves)


e|----------|
B|----------|

G|/9—11-9-|


D|----------|
A|/7---9--8-|
E|----------|

After…What about gold beneath the sea?


e|------------------------|
B|-------15---------------|
G|-12/14----14-12-12----12|
D|-------------------14---|
A|------------------------|
E|------------------------|

| / slide up
| slide down
| h hammer-on
| p pull-off
| ~ vibrato
| + harmonic
| x Mute note

To play the this songs, including What About Everything? by Carbon Leaf by ukulele, the most crucial basic ukulele chords to learn are C chord, D chord, G chord, and Em chord.
These set you up to play a a lot of songs, and each of them is easy to master.

Leave a Reply

Your email address will not be published.