What Do You Need? by Goo Goo Dolls Ukulele Chords

Posted on

If you are looking for What Do You Need? ukulele chords, you already come to the right site.
You can play versatile instrument What Do You Need? using ukulele or guitar.
This song by Goo Goo Dolls can also be played by that instruments.
=

What Do You Need? chords has rhythm and included in Gutterflower (2002) album.
You can also get other musical genres, including jazz ukulele chords, country music ukulele chords, pop ukulele chords, world music ukulele chords, and rock ukulele chords here.

What Do You Need? by Goo Goo Dolls Ukulele Chords


Goo Goo Dolls – What Do You Need

I’m not sure what your opinion will be of this tab. It should be
correct i’ve updated it recently (2004) so yeah hopefully it’s
correct :)…
I’ve found that Johnny plays this in one of his weird tunings again
(thank God he’s going to “re-learn” Standard tuning and how to play
in it better) the tuning is DGCFAE.
I prefer it in standard ’cause i don’t have to go changing everything
all the time meaning more goo songs to play.

Tuning: STANDARD

Keys:
/ slide up
() play note softly (doesn’t apply where it says
Riff 1/2, etc… – only notes played)
[—]
F5 – 133xxx
G5 – 355xxx
Dm5 – 5577xx
A#5 – 688xxx ‘or’ x133xx
A#m5 – 1133xx
C5 – x355xx

Riff 1:


E|-------|---------------------------------------0------
B|-------|---------------------------------------5------
G|-5-5-5-|-7--------------------------------------------
D|-5-5-5-|-7------------2---3-0------3-0----------------
A|-3-3-3-|-5---------------------5-------3/5------------
E|-------|----------------------------------------------

Riff 2:


E|----------------------
B|----------------------
G|----------------------
D|-2---3-0------3-0-----
A|----------5-------3/5-
E|----------------------

Intro:
(riff 1) x4

Verse:
(Riff 2)
What do you need from me tonight?
(riff 2)
I feel like you look like through me now
(riff 2)
I can’t pretent it’s alright
(riff 2)
Maybe we’ll find a way somehow

Bridge:
Why do we need to turn it on?
Why does it always feel so wrong?

Chorus:
C5-C5-C5 (strum fastly as in riff 1)
What do you need from me tonight?
The truth is so complicated now
You feel so free to say
your wrong, your wrong, your wrong, your wrong

Riff 1 x1

VERSE
(another guitar strums palm mutes – if wanted)

BRIDGE

Chorus:
What do you need from me tonight?
The truth is so complicated now
You feel so free to say
your wrong, your wrong, your wrong
your wrong, your wrong, your wrong
A#5 (goto bridge – only applies once which is now)
your wrong, your wrong, wrong

Bridge:
(some sorta picking is here – couldn’t quite get it perfect – sorry)


E|--------------------------------------------------------------------
B|--------------------------------------------------------------------
G|--------------------------------------------------------------------
D|-----3------3--------5--------5----(3)-3----(3)-3----(3)-3----3-----
A|---3------3----3-(3)----3-(3)----1--------1--------1--------1-----3-
E|-1------1-----------------------------------------------------------

Why do we need to turn it on?


E|------------------------------------------
B|-----------------------------------3------
G|----------------------------------2-------
D|-----3------3--------5--------5--0--------
A|---3------3----3-(3)----3-(3)-------------
E|-1------1---------------------------------

Why does it always feel so wrong?

CHORUS

CHORUS 2

Transition:
(the first wrong is cont.. from previous chorus)
wrong, your wrong
your wrong
your wrong
your wrong
your wrrrrroooonnnnngggg

Outro:
BRIDGE x1

The tab is complete. There you have the tab you just have played
and looked at by me is complete. Hope it sounds right with you
aswell. If you want the real tunned version, well you’ll have
to do it yourself. I gotta other tabs to tab out at the moment.

To play the most songs, including What Do You Need? by Goo Goo Dolls by ukulele, the most crucial basic ukulele chords to learn are C chord, D chord, G chord, and Em chord.
These set you up to play a a lot of songs, and each of them is easy to learn.

Gravatar Image
Like to play Ukulele and Sudoku Game

Leave a Reply

Your email address will not be published. Required fields are marked *