Whatever You Want by Something for Kate Ukulele Chords

Posted on

If you are searching for Whatever You Want ukulele chords, you already come to the right place.
You can play versatile instrument Whatever You Want using ukulele or guitar.
This song by Something for Kate can also be played by that instruments.
=

Whatever You Want chords has rhythm and included in Other Songs album.
You can also find other musical style, including jazz ukulele chords, country music ukulele chords, pop ukulele chords, world music ukulele chords, and rock ukulele chords here.

Whatever You Want by Something for Kate Ukulele Chords

Whatever You Want – Something for Kate
Bass Tab

Tabbed by Conan Thorogood (errolschmidt@powerup.com.au)

1st verse
“Picked the wrong time to be looking up at the night…”


G|-------------------------------------------------------------------------
D|-------------------------------------------------------------------------
A|-2-----2--------2-----2-----2--2--2--4--4--4--4--6--6--6--6--------------
E|-------------------------------------------------------------4--4--4--4-- x3

“He’s buried alongside…”


G|-------------------------------------------------
D|----------------------------------------4--------
A|-4-----4-----4--4-----4-----4-----4-/6-----6--4--
E|-------------------------------------------------


G|-------------------------------------------------
D|-------------------------------------------------
A|-7-----7-----7--7-----7-----7--7--7-----4--7--4--
E|-------------------------------------------------

“I’m sorry, I know it’s only rock’n’roll…”


G|-------------------------------------
D|-------------------------------------
A|-4--4--4--4--6--6--6--6--------------
E|-------------------------4--4--4--4--


G|-------------------------------------------------------------------------
D|-------------------------------------------------------------------------
A|-2-----2--------2-----2-----2--2--2--4--4--4--4--6--6--6--6--------------
E|-------------------------------------------------------------4--4--4--4-- x3

“Believe everything you read…”


G|-------------------------------------------------
D|----------------------------------------4--------
A|-4-----4-----4--4-----4-----4-----4-/6-----6--4--
E|-------------------------------------------------


G|-------------------------------------------------
D|-------------------------------------------------
A|-7-----7-----7--7-----7-----7--7--7-----4--7--4--
E|-------------------------------------------------

Pre-Chorus (“they’ll be rolling in the aisles.”)


G|-------------------------------------------------
D|-6-----6--------6-----6-----6-----6-----6-----6--
A|-------------------6-----------6-----------6-----
E|-------------------------------------------------


G|-------------------------------------------------
D|----------------6-----6-----6-----6--6--6--6-----
A|-------------------6-----------6-----------------
E|-4-----4-----------------------------------------

Chorus
“Whatever you want…”


G|-------------------------------------------------------------
D|-------------------------------------------------------------
A|----------------------4-----4--4--4--6--------------------6--
E|-2-----2--------2--------------------------4--------4--------


G|-------------------------
D|-------------------------
A|(6)-6--------------------
E|-------4--------4-------- x2

“Sentimental…”


G|-------------------------------------------------
D|-------------------------------------------------
A|----------------------4-----4-----6--6--6--6--6--
E|-2-----2-----2--2--------------------------------


G|-------------------------------------------------
D|-------------------------------------------------
A|-7-----7-----7--7-----7-----7-----7-----4--7--4--
E|-------------------------------------------------

Bridge section (instrumental)


G|-------------------------------------------------
D|-6-----6--------6-----6-----6-----6-----6-----6--
A|-------------------6-----------6-----------6-----
E|-------------------------------------------------


G|-------------------------------------------------
D|----------------6-----6-----6-----6-----6-----6--
A|-------------------6-----------6-----------6-----
E|-4-----4-----------------------------------------

( Tab from: http://www.guitartabs.cc/tabs/s/something_for_kate/whatever_you_want_btab.html )


G|-------------------------------------------------
D|-------------------------------------------------
A|-------------------------------------------------
E|-2-----------------------0-----------------------


G|-------------------------------------------------
D|-6-----6--------6--6--6--------------------------
A|-------------------------------------------------
E|-------------------------------------------------


G|-------------------------------------------------
D|-------------------------------------------------
A|-------------------------------------------------
E|-2-----------------------0-----------------------


G|-------------------------------------------------------------
D|----------------------6-----6--6--6--6--6--6-----------------
A|-------------------------------------------------------------
E|-4-----4-----4--4--------------------------------4--4--4-----

Then this section repeated three times:


G|-------------------------------------------------
D|-------------------------------------------------
A|-4-----4--------4-----4-----4--4--4--6--6--6--6--
E|-------------------------------------------------


G|-------------------------------------------------
D|-------------------------------------------------
A|-1-----------------------------------------------
E|-------2---------2----2-----2--2--2--4--4--4----- x3


G|-------------------------------------------------
D|-------------------------------------------------
A|-4-----4--------4-----4-----4--4--4--6--6--6--6--
E|-------------------------------------------------

“Before you jump…”


G|-------------------------------------------------
D|-------------------------------------------------
A|----------------------------------7-----7-----7--
E|-5-----5-----5--5-----5-----5--5-----------------


G|-------------------------------------------------
D|-------------------------------------------------
A|-------------------------------------------------
E|-5-----5--------5--5--5-----5--5--5--5--5--5----

2nd Chorus
“Whatever you want…”


G|-------------------------------------------------------------
D|-------------------------------------------------------------
A|----------------------4-----4--4--4--6--------------------6--
E|-2-----2--------2--------------------------4--------4--------


G|-------------------------
D|-------------------------
A|(6)-6--------------------
E|-------4--------4-------- x2

“Sentimental…”


G|-------------------------------------------------
D|-------------------------------------------------
A|----------------------2-----2--------------------
E|-2-----2-----2--2--2--------------0-----0--0--0-- x2


G|-------------------------------------------------
D|-------------------------------------------------
A|-------------------------------------2-----2-----
E|-2-----2-----2--2--------4-----4-----------------


G|-------------------------------------------------
D|-------------------------------------------------
A|----------------------------------2-----2----/7--
E|-2-----2-----2--2-----4-----4--------------------


G|-------------------------
D|-------------------------
A|----7-----4-----4-----4--
E|-------------------------

Outro:


G|-------------------------------------------------
D|----------------------6-----------------6-----6--
A|-------------------------------------------------
E|-4-----4--------4--------------------------------


G|-------------------------------------------------
D|----------------------6--------------------------
A|-------------------6-----------------------------
E|-4-----4--------4--------------------------------


G|-------------------------------------------------
D|-------------------------------------------------
A|-------------------------------------------------
E|-2-----------------------0-----------------------


G|-------------------------
D|-------------------------
A|-------------------------
E|-4-----------------------

There we go… great song, watch out for the timing though. There’s a couple of bits
in the bridge section that I’m not entirely sure about, the bits with asterisks underneath
them… any suggestions or comments, send to errolschmidt@powerup.com.au
🙂

To play the this songs, including Whatever You Want by Something for Kate by ukulele, the most important basic ukulele chords to learn are C chord, D chord, G chord, and Em chord.
These set you up to play a ton of songs, and each of them is easy to master.

Leave a Reply

Your email address will not be published.