When Sorrow Sang by Blind Guardian Ukulele Chords

Posted on

If you are searching for When Sorrow Sang ukulele chords, you have visit to the right site.
You can play versatile instrument When Sorrow Sang using ukulele or guitar.
This song by Blind Guardian can also be played by that instruments.
=

When Sorrow Sang chords has rhythm and included in Nightfall in Middle-Earth (1998) album.
You can also get another musical genres, including jazz ukulele chords, country music ukulele chords, pop ukulele chords, world music ukulele chords, and rock ukulele chords here.

When Sorrow Sang by Blind Guardian Ukulele Chords

As recorded by Blind Guardian
(From the 1998 Album NIGHTFALL IN MIDDLE-EARTH)

Transcribed by Fear Fex

Words by Krsch Music by Olbrich & Krsch

Gtr I (A E A D G B E) – ‘Guitar1’
Gtr II (E A D G B E) – ‘Guitar2’
Gtr III (E A D G B E) – ‘Guitar3’

Intro
Q185
N.C.
[4/4] Gtr I
|-3-|
Q S S S S Q S S S S Q S S S S Q E E E Q S S S S Q S S S S


|-----------------------|---------------------|------------------------|
|-----------------------|---------------------|------------------------|
|-----------------------|---------------------|------------------------|
|-----------------------|---------------------|------------4-----------|
|-6----------9----------|-5----------6--8-6-5-|-6----------------------|
|-----------------------|---------------------|------------------------|
|----6-6-6-6----6-6-6-6-|----6-6-6-6----------|----6-6-6-6----6-6-6-6--|

|
| Gtr II
| W W Q S S S S Q S S S S


|-----------------------|---------------------|------------------------|
|-----------------------|---------------------|------------------------|
|-----------------------|---------------------|------------------------|
|-----------------------|---------------------|------------------------|
|-----------------------|---------------------|----6-6-6-6----6-6-6-6--|
|-----------------------|---------------------|------------------------|

|
| Gtr III
| W W Q S S S S Q S S S S


|-----------------------|---------------------|------------------------|
|-----------------------|---------------------|------------7-----------|
|-----------------------|---------------------|----8-8-8-8----8-8-8-8--|
|-----------------------|---------------------|------------------------|
|-----------------------|---------------------|-6----------------------|
|-----------------------|---------------------|------------------------|

N.C.


|---3---| |-3-|

Q S S S S Q E E E Q S S S S Q S S S S Q S S S S Q E E E


|----------------------------|------------------------|----------------------|
|----------------------------|------------------------|----------------------|
|----------------------------|------------------------|----------------------|
|----------------------------|-------------4----------|----------------------|
|-5----------6---8---6---5---|-6----------------------|-5----------6---8-6-5-|
|----------------------------|------------------------|----------------------|
|----6-6-6-6-----------------|----6-6-6-6-----6-6-6-6-|----6-6-6-6-----------|

|
| |-3-|
| Q S S S S Q S S S S Q S S S S Q S S S S Q S S S S Q E E E


|----------------------------|------------------------|----------------------|
|----------------------------|------------------------|----------------------|
|----------------------------|------------------------|----------------------|
|----------------------------|-4-----------8----------|------------4---6-4-3-|
|----6-6-6-6-----6-6---6---6-|----6-6-6-6-----6-6-6-6-|-8--6-6-6-6-----------|
|----------------------------|------------------------|----------------------|

|


| |---3---| |-3-|

| Q S S S S Q E E E Q S S S S Q S S S S Q S S S S Q E E E


|----------------------------|------------------------|----------------------|
|----------------------------|-7----------11----------|-6----------7---9-7-6-|
|-7--8-8-8-8-8--10---8---7---|-8--8-8-8-8-11--8-8-8-8-|-7--8-8-8-8-8--10-8-7-|
|----------------------------|------------------------|----------------------|
|----------------------------|------------------------|----------------------|
|----------------------------|------------------------|----------------------|

N.C.
|-3-|
Q S S S S Q S S S S Q S S S S Q E E E Q Q Q Q


|------------------------|----------------------|-------------|
|------------------------|----------------------|-------------|
|------------------------|----------------------|-------------|
|-------------4----------|----------------------|-------------|
|-6----------------------|-5----------6---8-6-5-|-6-----------|
|------------------------|----------------------|----6--7--4--|
|----6-6-6-6-----6-6-6-6-|----6-6-6-6-----------|-------------|

|
| |-3-|
| Q S S S S Q S S S S Q S S S S Q E E E Q Q Q Q


|------------------------|----------------------|-------------|
|------------------------|----------------------|-------------|
|------------------------|----------------------|-8-----------|
|-4-----------8----------|------------4---6-4-3-|----8--9--6--|
|----6-6-6-6-----6-6-6-6-|-8--6-6-6-6-----------|-------------|
|------------------------|----------------------|-------------|

|
| |-3-|
| Q S S S S Q S S S S Q S S S S Q E E E W


|------------------------|----------------------|-------------|
|-7----------11----------|-6----------7---9-7-6-|-------------|
|-8--8-8-8-8-11--8-8-8-8-|-7--8-8-8-8-8--10-8-7-|-------------|
|------------------------|----------------------|-------------|
|------------------------|----------------------|-------------|
|------------------------|----------------------|-------------|

N.C.
Q Q Q Q Q Q Q Q Q Q Q Q W


|-------------|-------------|-------------|------|
|-------------|-------------|-------------|------|
|-------------|-------------|-------------|------|
|-------------|-------------|-------------|------|
|----6--5--8--|-6-----------|----6--5--8--|-6----|
|-6-----------|----6--7--4--|-6-----------|------|
|-------------|-------------|-------------|------|

|
| Q Q Q Q Q Q Q Q Q Q Q Q W


|-------------|-------------|-------------|------|
|----------6--|-------------|----------6--|------|
|----8--7-----|-8-----------|----8--7-----|-8----|
|-8-----------|----8--9--6--|-8-----------|------|
|-------------|-------------|-------------|------|
|-------------|-------------|-------------|------|

Verse
N.C.
+W Q S S S S Q S S S S Q S S S S E E S S S S


|------------|-----------------------|-------------------------|
|------------|-----------------------|-------------------------|
|------------|-----------------------|-------------------------|
|-(1)--------|-4---------------------|-------------------------|
|------------|------------8----------|-6----------4-6----------|
|------------|-----------------------|-------------------------|
|------------|----6-6-6-6----6-6-6-6-|----6-6-6-6-----6-6-6-6--|

|
| Gtr III
| +W Q Q Q Q Q Q E E Q


|------------|-----------------------|-------------------------|
|-(4)--------|-7----------6----------|-------------------------|
|------------|-----------------------|-8----------6-8----------|
|------------|-----------------------|-------------------------|
|------------|-----------------------|-------------------------|
|------------|-----------------------|-------------------------|

N.C.
Q S S S S Q S S S S Q S S S S E E S S S S Q S S S S Q S S S S


|-----------------------|------------------------|------------------------|
|-----------------------|------------------------|------------------------|
|-----------------------|------------------------|------------------------|
|-4---------------------|------------------------|-4----------------------|
|------------8----------|-6----------4-6---------|------------8-----------|
|-----------------------|------------------------|------------------------|
|----6-6-6-6----6-6-6-6-|----6-6-6-6-----6-6-6-6-|----6-6-6-6----6-6-6-6--|

|
| Gtr II
| W W Q Q Q Q


|-----------------------|------------------------|-6----------4-----------|
|-----------------------|------------------------|------------------------|
|-----------------------|------------------------|-3----------1-----------|
|-----------------------|------------------------|------------------------|
|-----------------------|------------------------|------------------------|
|-----------------------|------------------------|------------------------|

|
| Gtr III
| Q Q Q Q Q Q E E Q Q Q Q Q


|-----------------------|------------------------|------------------------|
|-7----------6----------|------------------------|-7----------6-----------|
|-----------------------|-8----------6-8---------|------------------------|
|-----------------------|------------------------|------------------------|
|-----------------------|------------------------|------------------------|
|-----------------------|------------------------|------------------------|

N.C.
Q S S S S E E S S S S Q S S S S Q S S S S Q S S S S E E S S S S


|------------------------|-----------------------|-------------------------|
|------------------------|-----------------------|-------------------------|
|------------------------|-----------------------|-------------------------|
|------------------------|-4---------------------|-------------------------|
|-6----------4-6---------|------------8----------|-6----------4-6----------|
|------------------------|-----------------------|-------------------------|
|----6-6-6-6-----6-6-6-6-|----6-6-6-6----6-6-6-6-|----6-6-6-6-----6-6-6-6--|

|
| Q Q E E Q Q Q Q Q Q Q E E Q


|------------------------|-6----------4----------|-------------------------|
|-7----------6-7---------|-----------------------|-7----------6-7----------|
|------------------------|-3----------1----------|-------------------------|
|-4----------3-4---------|-----------------------|-4----------3-4----------|
|------------------------|-----------------------|-------------------------|
|------------------------|-----------------------|-------------------------|

|
| Q Q E E Q Q Q Q Q Q Q E E Q


|------------------------|-----------------------|-------------------------|
|------------------------|-7----------6----------|-------------------------|
|-8----------6-8---------|-----------------------|-8----------6-8----------|
|------------------------|-----------------------|-------------------------|
|------------------------|-----------------------|-------------------------|
|------------------------|-----------------------|-------------------------|

S S S S S S S S S S S S S S S S


|-------------------------------------------|
|-------------------------------------------|
|-------------------------------------------|
|-------------------------------------------|
|--8-8--8-8--8--8--8-8--8-8--8-8---8--8-8-8-|
|-------------------------------------------|
|-------------------------------------------|

|
| E E S S E E E +Q


|------16---16-15-13---18---20---(20)-------|
|-18----------------------------------------|
|-------------------------------------------|
|-------------------------------------------|
|-------------------------------------------|
|-------------------------------------------|

S S S S S S S S S S S S S S S S


|-------------------------------------------|
|-------------------------------------------|
|-------------------------------------------|
|-------------------------------------------|
|--6-6--6-6--6--6--6-6--6-6--6-6---6--6-6-6-|
|-------------------------------------------|
|-------------------------------------------|

|
| E E S S E E E +Q


|------16---16-15-13---20---18---(18)-------|
|-18----------------------------------------|
|-------------------------------------------|
|-------------------------------------------|
|-------------------------------------------|
|-------------------------------------------|

S S S S S S S S S S S S S S S S W


|-------------------------------------------|-------------------------|
|-------------------------------------------|-------------------------|
|-------------------------------------------|-------------------------|
|-------------------------------------------|--6----------------------|
|-------------------------------------------|--6----------------------|
|--6-6--6-6--6--6--6-6--6-6--6-6---6--6-6-6-|--4----------------------|
|-------------------------------------------|-------------------------|

|
| E E S S E E E +Q E E E E E E +Q


|------16---16-15-13---18---20---(20)-------|-20-18-18-16-16-15-(15)--|
|-18----------------------------------------|-------------------------|
|-------------------------------------------|-------------------------|
|-------------------------------------------|-------------------------|
|-------------------------------------------|-------------------------|
|-------------------------------------------|-------------------------|

S S S S S S S S S S S S S S S S


|-------------------------------------------|
|-------------------------------------------|
|-------------------------------------------|
|-------------------------------------------|
|--8-8--8-8--8--8--8-8--8-8--8-8---8--8-8-8-|
|-------------------------------------------|
|-------------------------------------------|

|
| E E S S E E E +Q


|------16---16-15-13---18---20---(20)-------|
|-18----------------------------------------|
|-------------------------------------------|
|-------------------------------------------|
|-------------------------------------------|
|-------------------------------------------|

S S S S S S S S S S S S S S S S


|-------------------------------------------|
|-------------------------------------------|
|-------------------------------------------|
|-------------------------------------------|
|--6-6--6-6--6--6--6-6--6-6--6-6---6--6-6-6-|
|-------------------------------------------|
|-------------------------------------------|

|
| E E S S E E E +Q


|------16---16-15-13---20---18---(18)-------|
|-18----------------------------------------|
|-------------------------------------------|
|-------------------------------------------|
|-------------------------------------------|
|-------------------------------------------|

S S S S S S S S S S S S S S S S


|-------------------------------------------|
|-------------------------------------------|
|-------------------------------------------|
|-------------------------------------------|
|-------------------------------------------|
|--6-6--6-6--6--6--6-6--6-6--6-6---6--6-6-6-|
|-------------------------------------------|

|
| E E S S E E E +Q


|------16---16-15-13---18---20---(20)-------|
|-18----------------------------------------|
|-------------------------------------------|
|-------------------------------------------|
|-------------------------------------------|
|-------------------------------------------|

W Q E Q E Q


|-------------------------|---------------|
|-------------------------|---------------|
|-------------------------|---------------|
|--6----------------------|-3----3----3---|
|--6----------------------|-3----3----3---|
|--4----------------------|-1----1----1---|
|-------------------------|---------------|

|
| E E E E E E +Q W


|-20-18-18-16-16-15-(15)--|---------------|
|-------------------------|---------------|
|-------------------------|---------------|
|-------------------------|---------------|
|-------------------------|---------------|
|-------------------------|---------------|

W


|-------------------------------------------------|
|-------------------------------------------------|
|-------------------------------------------------|
|-------------------------------------------------|
|-------------------------------------------------|
|-------------------------------------------------|
|-------------------------------------------------|

|
| S S S S S S S S S S S S S S S S


|-11----------11----------11----------11----------|
|----13-11-13----13-11-13----13-11-13----13-11-13-|
|-------------------------------------------------|
|-------------------------------------------------|
|-------------------------------------------------|
|-------------------------------------------------|

Q E Q E Q +W


|-------------------|------------------|
|-------------------|------------------|
|-------------------|------------------|
|--3------3---------|------------------|
|--3------3------6--|--(6)-------------|
|--1------1------6--|--(6)-------------|
|----------------6--|--(6)-------------|

|
| Q. Q. Q +E Q. H


|-------------------|------------------|
|---------------11--|-(11)-12----13----|
|-10-----13---------|------------------|
|-------------------|------------------|
|-------------------|------------------|
|-------------------|------------------|

Q E Q E Q W Q E Q E Q +W


|--------------|--------------------|--------------|--------|
|--------------|--------------------|--------------|--------|
|--------------|--------------------|--------------|--------|
|-3----3----3--|--------------------|-3----3-------|--------|
|-3----3----3--|--------------------|-3----3----6--|-(6)----|
|-1----1----1--|--------------------|-1----1----6--|-(6)----|
|--------------|--------------------|-----------6--|-(6)----|

|
| W Q. E H W W


|--------------|-18b20--------------|--------------|--------|
|--------------|-----------20b21----|--------------|--------|
|--------------|--------------------|--------------|--------|
|--------------|--------------------|--------------|--------|
|--------------|--------------------|--------------|--------|
|--------------|--------------------|--------------|--------|

S S S S S S S S S S S S S S S S


|-----------------------------------------|
|-----------------------------------------|
|-----------------------------------------|
|--5-5--5-5--5--5--5-5--5-5--5--5-5-5-5-5-|
|-----------------------------------------|
|-----------------------------------------|
|-----------------------------------------|

|
| E E S S E E Q.


|-----------------------------------------|
|----------------------13---15------------|
|-12---15---15-14-12----------------------|
|-----------------------------------------|
|-----------------------------------------|
|-----------------------------------------|

S S S S S S S S S S S S S S S S


|-----------------------------------------|
|-----------------------------------------|
|-----------------------------------------|
|--3-3--3-3--3--3--3-3--3-3--3--3-3-3-3-3-|
|-----------------------------------------|
|-----------------------------------------|
|-----------------------------------------|

|
| E E S S E E Q.


|-----------------------------------------|
|----------------------15---13------------|
|-12---15---15-14-12----------------------|
|-----------------------------------------|
|-----------------------------------------|
|-----------------------------------------|

S S S S S S S S S S S S S S S S W


|-----------------------------------------|----------------------|
|-----------------------------------------|----------------------|
|-----------------------------------------|--3-------------------|
|-----------------------------------------|--3-------------------|
|--3-3--3-3--3--3--3-3--3-3--3--3-3-3-3-3-|--1-------------------|
|-----------------------------------------|----------------------|
|-----------------------------------------|----------------------|

|
| E E S S E E Q. E E E E E Q.


|------18---18-17------20---22------------|-22-20-20-18-18-17----|
|-20--------------20----------------------|----------------------|
|-----------------------------------------|----------------------|
|-----------------------------------------|----------------------|
|-----------------------------------------|----------------------|
|-----------------------------------------|----------------------|

S S S S S S S S S S S S S S S S


|-----------------------------------------|
|-----------------------------------------|
|-----------------------------------------|
|--5-5--5-5--5--5--5-5--5-5--5--5-5-5-5-5-|
|-----------------------------------------|
|-----------------------------------------|
|-----------------------------------------|

|
| E E S S E E Q.


|------18---18-17------20---22------------|
|-20--------------20----------------------|
|-----------------------------------------|
|-----------------------------------------|
|-----------------------------------------|
|-----------------------------------------|

S S S S S S S S S S S S S S S S


|-----------------------------------------|
|-----------------------------------------|
|-----------------------------------------|
|--3-3--3-3--3--3--3-3--3-3--3--3-3-3-3-3-|
|-----------------------------------------|
|-----------------------------------------|
|-----------------------------------------|

|
| E E S S E E Q.


|------18---18-17------22---20------------|
|-20--------------20----------------------|
|-----------------------------------------|
|-----------------------------------------|
|-----------------------------------------|
|-----------------------------------------|

S S S S S S S S S S S S S S S S


|-------------------------------------------|
|-------------------------------------------|
|-------------------------------------------|
|-------------------------------------------|
|--3-3--3-3--3--3--3-3--3-3--3-3---3--3-3-3-|
|-------------------------------------------|
|-------------------------------------------|

|
| E E S S E E E +Q


|------18---18-17------20---22---(22)-------|
|-20--------------20------------------------|
|-------------------------------------------|
|-------------------------------------------|
|-------------------------------------------|
|-------------------------------------------|

Chorus
W W


|-------------------------|---------------|
|-------------------------|---------------|
|--3----------------------|-8-------------|
|--3----------------------|-8-------------|
|--1----------------------|-6-------------|
|-------------------------|---------------|
|-------------------------|---------------|

|
| E E E E E E +Q Q. Q. Q


|-22-20-20-18-18-17-(17)--|------2----4---|
|-------------------------|-4-------------|
|-------------------------|---------------|
|-------------------------|---------------|
|-------------------------|---------------|
|-------------------------|---------------|

W W W W


|----------------|----------------|----------------|----------------|
|----------------|----------------|----------------|----------------|
|-4--------------|-6--------------|----------------|-8--------------|
|-4--------------|-6--------------|-6--------------|-8--------------|
|-2--------------|-4--------------|-6--------------|-6--------------|
|----------------|----------------|-4--------------|----------------|
|----------------|----------------|----------------|----------------|

|
| Q. E +Q Q Q. E +Q Q Q. E +Q Q Q. E +Q Q


|-6----4-(4)--6--|------2-(2)--4--|-6----4-(4)--6--|------2-(2)--4--|
|----------------|-4--------------|----------------|-4--------------|
|----------------|----------------|----------------|----------------|
|----------------|----------------|----------------|----------------|
|----------------|----------------|----------------|----------------|
|----------------|----------------|----------------|----------------|

W W W W


|----------------|----------------|----------------|----------------|
|----------------|----------------|----------------|----------------|
|-4--------------|-6--------------|----------------|-8--------------|
|-4--------------|-6--------------|-6--------------|-8--------------|
|-2--------------|-4--------------|-6--------------|-6--------------|
|----------------|----------------|-4--------------|----------------|
|----------------|----------------|----------------|----------------|

|
| Q. E +Q Q Q. E +Q Q Q. E +Q Q Q. E +Q Q


|-6----4-(4)--6--|------2-(2)--4--|-6----4-(4)--6--|------2-(2)--4--|
|----------------|-4--------------|----------------|-4--------------|
|----------------|----------------|----------------|----------------|
|----------------|----------------|----------------|----------------|
|----------------|----------------|----------------|----------------|
|----------------|----------------|----------------|----------------|

W W W W


|----------------|----------------|----------------|----------------|
|----------------|----------------|----------------|----------------|
|-4--------------|-6--------------|----------------|-8--------------|
|-4--------------|-6--------------|-6--------------|-8--------------|
|-2--------------|-4--------------|-6--------------|-6--------------|
|----------------|----------------|-4--------------|----------------|
|----------------|----------------|----------------|----------------|

|
| Q. E +Q Q Q. E +Q Q Q. E +Q Q Q. E +Q Q


|-6----4-(4)--6--|------2-(2)--4--|-6----4-(4)--6--|------2-(2)--4--|
|----------------|-4--------------|----------------|-4--------------|
|----------------|----------------|----------------|----------------|
|----------------|----------------|----------------|----------------|
|----------------|----------------|----------------|----------------|
|----------------|----------------|----------------|----------------|

Bridge
W W W Q E E +Q S S E


|----------------|----------------|----------------|--------------------|
|----------------|----------------|----------------|--------------------|
|-4--------------|-6--------------|----------------|--------------------|
|-4--------------|-6--------------|-6--------------|--------------------|
|-2--------------|-4--------------|-6--------------|----8-6-(6)---------|
|----------------|----------------|-4--------------|-8------------------|
|----------------|----------------|----------------|-8-----------6-6-6--|

|
| Q. E +Q Q Q. E +Q Q Q. E +Q Q W


|-6----4-(4)--6--|------2-(2)--4--|-6----4-(4)--6--|--------------------|
|----------------|-4--------------|----------------|--------------------|
|----------------|----------------|----------------|--------------------|
|----------------|----------------|----------------|--------------------|
|----------------|----------------|----------------|--------------------|
|----------------|----------------|----------------|--------------------|

Q E E +E E +Q W


|-------------------|----------------------------|
|-------------------|----------------------------|
|-------------------|----------------------------|
|-------------------|--6-------------------------|
|-------------------|--6-------------------------|
|-8----7-(7)-6-(6)--|--4-------------------------|
|----6--------------|----------------------------|

|
| W E E E E +Q E E


|-------------------|-13----13----------13-15b16-|
|-------------------|----13----16-(16)-----------|
|-------------------|----------------------------|
|-------------------|----------------------------|
|-------------------|----------------------------|
|-------------------|----------------------------|

+W E E E E +Q S S E


|-------------|---------------------|
|-------------|---------------------|
|-------------|---------------------|
|--(6)--------|---------------------|
|--(6)--------|-----8-6-(6)---------|
|--(4)--------|-8-8-----------------|
|-------------|-8-8----------6-6-6--|

|
| +W W


|-(15)--------|---------------------|
|-------------|---------------------|
|-------------|---------------------|
|-------------|---------------------|
|-------------|---------------------|
|-------------|---------------------|

Q E E +E E +Q W +W


|-------------------|--------------------------|---------|
|-------------------|--------------------------|---------|
|-------------------|--------------------------|---------|
|-------------------|--6-----------------------|--(6)----|
|-------------------|--6-----------------------|--(6)----|
|-8----7-(7)-6-(6)--|--4-----------------------|--(4)----|
|----6--------------|--------------------------|---------|

|
| W E E E E +Q Q +W


|-------------------|-------------------16b18r|(16)----|
|-------------------|-18----18-16-(16)---------|---------|
|-------------------|----17--------------------|---------|
|-------------------|--------------------------|---------|
|-------------------|--------------------------|---------|
|-------------------|--------------------------|---------|

S S S S S S S S S S S S S S S S


|-------------------------------------|
|-------------------------------------|
|-------------------------------------|
|-------------------------------------|
|--3----3-3-3-3-3-3-3-3-3-3-3-3-3-3-3-|
|-------------------------------------|
|-------------------------------------|

|
| W
|-18b20r|


|-------------------------------------|
|-------------------------------------|
|-------------------------------------|
|-------------------------------------|
|-------------------------------------|

S S S S S S S S S S S S S S S S


|-----------------------------------------------|
|-----------------------------------------------|
|-----------------------------------------------|
|-----------------------------------------------|
|--3----3-3-3-3-3--3-3--3-3-3-3--3----3-----3-3-|
|-----------------------------------------------|
|-----------------------------------------------|

|


| |---3---|

| Q. E Q S S S E


|-18b20r18-------15-18---15-13---|
|-----------------20----------------------------|
|-----------------------------------------------|
|-----------------------------------------------|
|-----------------------------------------------|
|-----------------------------------------------|

S S S S S S S S S S S S S S S S


|-------------------------------------------|
|-------------------------------------------|
|-------------------------------------------|
|-------------------------------------------|
|--6--6-6-6-6-6--6-6---6--6-6-6--6----6-6-6-|
|-------------------------------------------|
|-------------------------------------------|

|
| Q. E +Q Q


|-18----------------------------18b20r|
|---------------18---(18)-------------------|
|-------------------------------------------|
|-------------------------------------------|
|-------------------------------------------|
|-------------------------------------------|

|
| Gtr III
| W


|-------------------------------------------|
|-------------------------------------------|
|-------------------------------------------|
|-------------------------------------------|
|-------------------------------------------|
|-------------------------------------------|


|-3-| |----3-----|

W Q Q Q Q Q Q


|-------------|------------------------|
|-------------|------------------------|
|---8---------|------------------------|
|---8---------|------------------------|
|---6---------|-3-3-3------------------|
|-------------|-1-1-1--4-3--------1----|
|-------------|------------------------|

|


| |-3-| |--3--|

| +W Q Q Q Q S S S E


|-(18)--------|-------16---15-16-15-13-|
|-------------|------------------------|
|-------------|------------------------|
|-------------|------------------------|
|-------------|------------------------|
|-------------|------------------------|

|


| |-3-| |--3--|

| W Q Q Q Q S S S E


|-------------|-------20---18-20-18-16-|
|-------------|------------------------|
|-------------|------------------------|
|-------------|------------------------|
|-------------|------------------------|
|-------------|------------------------|

Verse


|--3--| |--3--|

Q S S S Q Q Q E W H H W


|--------------------------|-----------|-------------|------|
|--------------------------|-----------|-------------|------|
|--------------------------|-----------|-------------|------|
|--------------------------|-6---------|--8-----8----|------|
|--------------------------|-6---------|--8-----8----|------|
|--3---1--3--1-----1-----8-|-4---------|--6-----6----|------|
|---------------6-----6----|-----------|-------------|------|

|


| |--3--| |--3--|

| Q S S S Q Q Q E H H H H W


|-15--13-15-13----13-------|-----------|--------8----|------|
|--------------16----16-13-|-6----8----|--9----------|------|
|--------------------------|-----------|-------------|-8----|
|--------------------------|-----------|-------------|------|
|--------------------------|-----------|-------------|------|
|--------------------------|-----------|-------------|------|

|


| |--3--| |--3--|

| Q S S S Q Q Q E H H H H W


|-18--16-18-16-15-16-15----|-----------|-------------|------|
|-----------------------16-|-----------|--------8----|-7----|
|--------------------------|-5----7----|--8----10----|------|
|--------------------------|-6----8----|-10----------|------|
|--------------------------|-----------|-------------|-6----|
|--------------------------|-----------|-------------|------|

N.C.
Gtr II
+W W +H. a Q W


|-------------|----------|----------8-6--|------|
|-------------|-7--------|-(7)-----------|-6----|
|--(8)--------|----------|---------------|------|
|-------------|----------|---------------|------|
|-------------|----------|---------------|------|
|-------------|----------|---------------|------|

|
| Gtr III
| +W W +H. Q W


|-------------|----------|---------------|-5----|
|-------------|----------|---------------|------|
|-(11)--------|----------|---------------|------|
|-------------|----------|---------------|-3----|
|-------------|-9--------|-(9)-----------|------|
|-(11)--------|----------|---------------|------|

N.C.
+H Q Q E E +Q +H +W W


|---------------|-7-6-(6)--(6)----|-(6)--------|-------|
|--(6)----6-----|-----------------|------------|--4----|
|---------------|-----------------|------------|-------|
|------------8--|-----------------|------------|-------|
|---------------|-----------------|------------|-------|
|---------------|-----------------|------------|-------|

|
| +H H W W W


|---------------|-----------------|------------|-------|
|-(10)----------|-----------------|------------|-------|
|---------------|-----------------|------------|-11----|
|---------------|-----------------|------------|-------|
|---------------|-----------------|------------|-------|
|-(13)----------|-----------------|------------|-11----|

N.C.
+W W +H. a Q W


|-------------|-2--------|-(2)------8-6--|-------|
|--(4)--------|----------|---------------|--6----|
|-------------|----------|---------------|-------|
|-------------|----------|---------------|-------|
|-------------|----------|---------------|-------|
|-------------|----------|---------------|-------|

|
| +W W +H. Q W


|-------------|----------|---------------|-------|
|-------------|----------|---------------|-10----|
|-(11)--------|----------|---------------|-------|
|-------------|----------|---------------|-------|
|-------------|-9--------|-(9)-----------|-------|
|-(11)--------|----------|---------------|-13----|

N.C.
Gtr I
W W


|---------------|-----------------|
|---------------|-----------------|
|---------------|-----------------|
|---------------|-----------------|
|---------------|-----------------|
|---------------|-----------------|
|---------------|-----------------|

|
| Gtr II
| +H Q Q E E +Q +H


|---------------|-7-6-(6)--(6)----|
|--(6)----6-----|-----------------|
|---------------|-----------------|
|------------8--|-----------------|
|---------------|-----------------|
|---------------|-----------------|

|
| Gtr III
| +H H W


|---------------|-----------------|
|-(10)----------|-----------------|
|---------------|-----------------|
|---------------|-----------------|
|---------------|-----------------|
|-(13)----------|-----------------|

W E S S S S S S S S S S E E


|------------|--------------------------------|
|------------|--------------------------------|
|------------|--------------------------------|
|------------|--------------------------------|
|------------|---------------9---7-7-7---7----|
|------------|-11-11-11-11-----------------9--|
|------------|--------------------------------|

|
| +W W


|-(6)--------|--------------------------------|
|------------|--------------------------------|
|------------|--------------------------------|
|------------|--------------------------------|
|------------|--------------------------------|
|------------|--------------------------------|

|
| W W


|------------|--------------------------------|
|------------|--------------------------------|
|------------|--------------------------------|
|------------|--------------------------------|
|------------|--------------------------------|
|------------|--------------------------------|

E S S S S S S S S S S Q E S S S S S S S S S S E E


|-----------------------------|---------------------------|
|-----------------------------|---------------------------|
|--------------------------9--|---------------------------|
|--------------------------9--|-----------4---2-2-2---2---|
|--------------9---7-7-7---7--|-6-6-6-6-----------------4-|
|---11-11-11------------------|---------------------------|
|-----------------------------|---------------------------|

Verse
E5 N.C.
E S S S S S S S S S S Q S S S S E E E E E E


|--------------------------|------------------------------|
|--------------------------|------------------------------|
|-----------------------9--|------------------------------|
|-----------4---2-2-2---9--|------------------------------|
|---6-6-6---------------7--|--6-6--6-6--6--6-------6--6-4-|
|--------------------------|------------------------------|
|--------------------------|------------------------------|

|
| Gtr II
| W E E E E +E E Q


|--------------------------|------------------------------|
|--------------------------|-19---18---19------------18---|
|--------------------------|--------------20-(20)-20------|
|--------------------------|------------------------------|
|--------------------------|------------------------------|
|--------------------------|------------------------------|

S S S S E E E E E E


|--------------------------------|
|--------------------------------|
|--------------------------------|
|--------------------------------|
|--6-6--6-6--6--6-------6---6--4-|
|--------------------------------|
|--------------------------------|

|
| E E E E +E E +Q


|-----------18-16-(16)-14-(14)---|
|-19---18------------------------|
|--------------------------------|
|--------------------------------|
|--------------------------------|
|--------------------------------|

N.C.
S S S S E E E E E E


|---------------------------------|
|---------------------------------|
|---------------------------------|
|--4----4-4-4-4--4------4--4------|
|-------------------------------4-|
|---------------------------------|
|---------------------------------|

|
| Q. E +Q Q


|-16b18---------16-(16)---16b18r|
|---------------------------------|
|---------------------------------|
|---------------------------------|
|---------------------------------|
|---------------------------------|

S S S S E E E E E E S S S S E E E E E E


|------------------------|-------------------------------|
|------------------------|-------------------------------|
|------------------------|-------------------------------|
|---4--4-4-4-4-4---4-4---|-------------------------------|
|----------------------4-|--6-6--6-6--6--6-------6--6-4--|
|------------------------|-------------------------------|
|------------------------|-------------------------------|

|
| +W E E E E +E E Q


|-(16)-------------------|-14---13---14------------------|
|------------------------|--------------16-(16)-16-18----|
|------------------------|-------------------------------|
|------------------------|-------------------------------|
|------------------------|-------------------------------|
|------------------------|-------------------------------|

N.C.
S S S S E E E E E E


|--------------------------------|
|--------------------------------|
|--------------------------------|
|--------------------------------|
|--6-6--6-6--6--6-------6---6--4-|
|--------------------------------|
|--------------------------------|

|
| E E E E +E E +Q


|-----------18-16-(16)-14-(14)---|
|-19---18------------------------|
|--------------------------------|
|--------------------------------|
|--------------------------------|
|--------------------------------|

S S S S E E E E E E S S S S E E E E E E


|---------------------------------|-------------------------|
|---------------------------------|-------------------------|
|---------------------------------|-------------------------|
|--4----4-4-4-4--4------4--4------|---4--4-4-4-4-4---4-4----|
|-------------------------------4-|----------------------4--|
|---------------------------------|-------------------------|
|---------------------------------|-------------------------|

|
| Q. E +Q Q +W


|-16b18---------21-(21)---23b25r|(23)--------------------|
|---------------------------------|-------------------------|
|---------------------------------|-------------------------|
|---------------------------------|-------------------------|
|---------------------------------|-------------------------|
|---------------------------------|-------------------------|

N.C.
S S S S E E E E E E S S S S E E E E E E


|------------------------------|--------------------------------|
|------------------------------|--------------------------------|
|------------------------------|--------------------------------|
|------------------------------|--------------------------------|
|--6-6--6-6--6--6-------6--6-4-|--6-6--6-6--6--6-------6---6--4-|
|------------------------------|--------------------------------|
|------------------------------|--------------------------------|

|
| E E E E +E E Q E E E E +E E +Q


|-14---13---14-----------------|-----------18-16-(16)-14-(14)---|
|--------------16-(16)-16-18---|-19---18------------------------|
|------------------------------|--------------------------------|
|------------------------------|--------------------------------|
|------------------------------|--------------------------------|
|------------------------------|--------------------------------|

S S S S E E E E E E


|----------------------------------|
|----------------------------------|
|----------------------------------|
|--4----4-4-4-4--4------4--4-------|
|-------------------------------4--|
|----------------------------------|
|----------------------------------|

|
| Q. E +Q Q


|-16b18---------16-(16)---16b18r|
|----------------------------------|
|----------------------------------|
|----------------------------------|
|----------------------------------|
|----------------------------------|

N.C.
S S S S E E E E E E S S S S E E E E E E


|------------------------|------------------------------|
|------------------------|------------------------------|
|------------------------|------------------------------|
|---4--4-4-4-4-4---4-4---|------------------------------|
|----------------------4-|--6-6--6-6--6--6-------6--6-4-|
|------------------------|------------------------------|
|------------------------|------------------------------|

|
| +W E E E E +E E Q


|-(16)-------------------|-14---13---14------------13---|
|------------------------|--------------16-(16)-16------|
|------------------------|------------------------------|
|------------------------|------------------------------|
|------------------------|------------------------------|
|------------------------|------------------------------|

S S S S E E E E E E


|---------------------------------|
|---------------------------------|
|---------------------------------|
|---------------------------------|
|--6-6--6-6--6--6-------6---6--4--|
|---------------------------------|
|---------------------------------|

|
| E E E E +E E +Q


|-14---13---18-16-(16)-14-(14)----|
|---------------------------------|
|---------------------------------|
|---

To play the most songs, including When Sorrow Sang by Blind Guardian by ukulele, the most crucial basic ukulele chords to learn are C chord, D chord, G chord, and Em chord.
These set you up to play a many of songs, and each of them is easy to learn.

Leave a Reply

Your email address will not be published.