Where’d You Go? by Graham Coxon Ukulele Chords

Posted on

If you are searching for Where’d You Go? ukulele chords, you’ve visit to the right site.
You can play versatile instrument Where’d You Go? using ukulele or guitar.
This song by Graham Coxon can also be played by that instruments.
=

Where’d You Go? chords has rhythm and included in The Sky Is Too High (1998) album.
You can also find other musical genres, including jazz ukulele chords, country music ukulele chords, pop ukulele chords, world music ukulele chords, and rock ukulele chords here.

Where’d You Go? by Graham Coxon Ukulele Chords


WHERE’D YOU GO

tabbed by Morgan Choax
25 MY 2002

Time signature is a fast 3/4. I’ll take one measure for 4 times 3 beats.
The tuning is traditionnal.

Chords you need to know: (@ stands for 10)

(7) (5) (4) 0 3 3 (2) (2) 0 0 0 0 0
8 5 5 1 0 0 4 4 0 1 2 0 0
9 6 6 0 0 0 4 2 0 2 2 3 1
9 7 6 2 0 0 4 4 2 2 2 2 2
(7) (7) 4 3 2 2 2 2 (2) 0 0 (2) (2)
0 5 x x 3 2 x x 0 x x 0 0
[G/F#]
I noted in brackets notes which are not actually played in the song. I myself finger them anyway in the case I play the wrong string: that way you stay in the harmony.

Intro:


|--------------------------|
|---8-8---8-8---8-8---8-8--|
|---9-9---9-9---9-9---9-9--|
|--9-9-9-9-9-9-9-9-9-9-9-9-|
|--------------------------|
|-0-----0-----0-----0------|


It’s a very simple arpeggio gimmick, with three fingers + thumb.

First chorus:
“Where’d you go…”


|--------------------------|--------------------------|
|---8-8---8-8---8-8---8-8--|---5-5---5-----5-5---5-5--|
|---9-9---9-9---9-9---9-9--|---6-6---6-----6-6---6-6--|
|--9-9-9-9-9-9-9-9-9-9-9-0-|--7-7-7-7-7---6-6-6-6-6-0-|
|--------------------------|-------------4-----4------|
|-0-----0-----0-----0------|-5-----5---57-------------|


|--------------p--(3)--3---|--------------------------|
|---1-1---1-1-10---0---0---|---4-4---4-4---4-4---4-4--|
|---0-0---0-0----0----0-0--|---4-4---4-4---2-2---2-2--| p pull-off
|--2-2-2-2-2-2-----------0-|--4-4-4-4-4-4-4-4-4-4-4-0-|
|-3-----3------------2-----|-2-----2-----2-----2------|
|---------------3-3-2------|--------------------------|

[G/F#]

Second chorus:
Quiet the same as the first chorus. Third measure becomes:


|-------------3--------3---|
|---1-1---1-1-10---0---0---|
|---0-0---0-0--p0-----0-0--| p pull-off
|--2-2-2-2-2-2---0-------0-|
|-3-----3------------2-----|
|-----------------3-2------|

[GM7/F#]

First verse:
“You made things bright..”


|--------------------------|----------------3-----3---|
|---2-2---2-2---0-0---0-0--|---1-1---1-1----0-----0---|
|---2-2---2-2---0-0---0-0--|---2--2--2-2---0-0---0-0--|
|--2-2-2-2-2-0-2-2-2-2-2-0-|--2-2---2-2-0-----0-----0-|
|-0-----0------------------|--------------2-----2-----|
|-------------0-----0------|-0-----0-----3-----2------|

[G/F#]


|--------------------------|
|---4-4---4-4---4-4---4-4--|
|---4-4---4-4---2-2---2-2--|
|--4-4-4-4-4-4-4-4-4-4-4-0-|
|-2-----2-----2-----2------|
|--------------------------|


“Let me inside…”


|--------------------------|--------------------------|
|---2-2---0-2---0-0---0-0--|---1-1---1-1----0-----0---|
|---2-2---2-2---0-0---0-0--|---2--2--2-2---0-0---0-0--|
|--2-2-2-2-2-0-2-2-2-2-2-0-|--2-2---2-2-0-0---0-0---0-|
|-0-----0------------------|-0-----0------------------|
|-------------0-----0------|-------------3-----2------|

[G/F#]


|--------------------------|
|---4-4---4-4---4-4---4-4--|
|---4-4---4-4---2-2---2-2--|
|--4-4-4-4-4-4-4-4-4-4-4-0-|
|-2-----2-----2-----2------|
|--------------------------|


“Said you were here…”


|--------------------------|--(0)0)-(0)0)-(0)0)-(0)0)-|
|---1-1---------00-0--00-0-|---0-0---0-0---0-0---0-0--|
|---0-0----0-0--0-----0----|---3-3---3-2---1-1---1-1--|
|--2-2-2-2-----0-----0-----|--2-2-2-2-2-2-2---2-2---2-|
|-3-----3-2-0--------------|--------------------------|
|-------------3---3-2---2--|-0-----0-----0-----0------|

[G/F#]


|--(0)0)-(0)0)-(0)0)-(0)0)-|
|---0-0---0-0---0-0---0-0--| I called that strange chord "Ed5" because
|---3-3---3-2---1-1---1-1--| it's a basic E with a discord on the 5th,
|--2-2-2-2-2-2-2---2-2---0-| since both natural and flat B are played
|--------------------------| together.
|-0-----0-----0-----0------|

Third chorus:
“Where’d you go…”
Almost the same plan as the first two times. The third measure changes a bit:


|--------------3-------3---|
|---1-1---1-1-10-0-0---0---|
|---0-0---0-0--p------0-0--| p pull-off
|--2-2-2-2-2-2-----------0-|
|-3-----3------------2-----|
|---------------3-3-2------|

[G/F#]

Fourth chorus:
“Where’d you go…”
Same again. Third measure:


|--------------3-------3---|
|---1-1---1-1-10---0---0---|
|---0-0---0-0--p------0-0--| p pull-off
|--2-2-2-2-2-2---0-------0-|
|-3-----3------------2-----|
|---------------3-3-2------|

[G/F#]

Second verse:
“You made things bright…”


|--------------------------|----------------3-----3---|
|---2-2---0-----0-0---0-0--|---1-1---0------0-----0---|
|---2-2---2-0---0-0---0-0--|---2-2---2-2---0-----0-0--|
|--2-2-2-2-2-0-2-2-2-2-2-0-|--2-2-2-2-2-0-----0-----0-|
|-0-----0------------------|-0------------2-----2-----|
|-------------0-----0------|-------------3---3-2------|

[G/F#]


|--------------------------|
|---4-4---4-4---4-4---4-4--|
|---4-4---4-4---2-2---2-2--|
|--4-4-4-4-4-4-4-4-4-4-4-0-|
|-2-----2-----2-----2------|
|--------------------------|


“Let me your eyes…”


|-----0--------------------|----------------3-----3---|
|---2-2---0-----0-0---0-0--|---1-1---1-----0--0---0---|
|---2-----2-0---0-0---0-0--|---2--2--2-0---------0--0-|
|--2-2-2-2-2-0-2-2-2-2-2-0-|--2-2---2-2-0-0-----0-----|
|-0-----0------------------|--------------------------|
|-------------0-----0------|-0-----0-----3---3-2---2--|

[G/F#]


|--------------------------|
|---4-4---4-4---4-4---4-4--|
|---4-4---4-4---2-2---2-2--|
|--4-4-4-4-4-4-4-4-4-4-4-0-|
|-2-----2-----2-----2------|
|--------------------------|


“(?)”


|----------------3-----3---|--(0)0)-(0)0)-(0)0)-(0)0)-|
|---1-1---------0--0--00---|---0-0---0-0---0-0---0-0--|
|---0-0--0-0-0--0-----0--0-|---3-3---3-2---1-1---1-1--|
|--2-2-2-------0-----------|--2-2-2-2-2-2-2---2-2---2-|
|-3-----3-2-0--------2-----|--------------------------|
|-------------3---3-2---2--|-0-----0-----0-----0------|

[G/F#]


|--(0)0)-(0)0)-(0)0)-(0)0)-|
|---0-0---0-0---0-0---0-0--|
|---3-3---3-2---1-1---1-1--| Repeat twice this last measure
|--2-2-2-2-2-2-2---2-2---0-| (so play the plan four times including
|--------------------------| previous measure)
|-0-----0-----0-----0------|

Last chord:

|-7–|
|-8–|
|-9–|
|-9–|
|-7–|
|-0–|

Comments ?
morgan.choax@caramail.com

To play the most songs, including Where’d You Go? by Graham Coxon by ukulele, the most crucial basic ukulele chords to learn are C chord, D chord, G chord, and Em chord.
These set you up to play a a lot of songs, and each of them is easy to master.

Gravatar Image
Like to play Ukulele and Sudoku Game

Leave a Reply

Your email address will not be published. Required fields are marked *