Wholly Yours by David Crowder Band Ukulele Chords

Posted on

If you are looking for Wholly Yours ukulele chords, you already visit to the best site.
You can play versatile instrument Wholly Yours using ukulele or guitar.
This song by David Crowder Band can also be played by that instruments.
=

Wholly Yours chords has rhythm and included in A Collision or (3+4=7) (2005) album.
You can also find other musical style, including jazz ukulele chords, country music ukulele chords, pop ukulele chords, world music ukulele chords, and rock ukulele chords here.

Wholly Yours by David Crowder Band Ukulele Chords


David Crowder

Key A Tempo

Capo on 2 so that the D A E chorus is played with C G D shapes

Intro


E|-----5-----5--|
B|-----5-----5--|
G|--------------|
D|--4-----4-----|
A|--------------|
E|--------------|

This is a lightly obscured reference to Foxy Lady in the intro.


E|--------5----5--------4--------5h7p5---------------------------|
B|--------5----5--------5--------5-------3h5p3p2-----------------|
G|------------------------------------------------4--2-----------|
D|------------------------------------------------------4--2-----|
A|----------------4--4-----5--5-------------------------------4--|
E|--5--5-----5---------------------------------------------------|

Hybrid picking on this (pick & middle+ring). The little run
show up a couple more times in the song.

I am [G/B]full of earth You are heaven’s worth
I am [G/B]stained with dirt prone to depravity
You are [G/B]everything that is bright and clean
The anto-[G/B]nym of me You are divinity

(1:29)
[G/B] But a certain sign of grace is [D/F#]this
[G/B] From a broken earth flowers [D/F#]come up
Pushing through the dirt

You are holy, holy, h[D/F#]oly all heaven cries holy holy God
You are holy, holy, h[D/F#]oly I wanna be holy like You are

(1:11)
[G/B]
You are [G/B]everything that is bright and clean
And You’re [G/B]cov-er-ing me with Your majesty

(1:30)
[G/B] And the truest sign of grace was [D/F#]this
[G/B] From wounded hands redemption fe[D/F#]ll down
Liberating man

Chorus (1:45)
You are holy, holy, h[D/F#]oly all heaven cries holy holy God
You are holy, holy, h[D/F#]oly I wanna be holy like You are

Bridge (2:10)
But the harder I try the more clearly can I fee[G/B]l
The depth of our fa[D/F#]ll and the weight of it all
And so this might could [G/B]be the most impossible thing
Your grandness in m[D/F#]e making me (start chorus riff next bar)
clean; Glory[D/F#] hallelujah glory glory, [D/F#]hallelujah
Chorus (2:47)
You are holy, holy, h[D/F#]oly all heaven cries holy holy God
You are holy, holy, h[D/F#]oly I wanna be holy like You are

(3:12)
So here I am all of me [D/F#]finally everything wholly wholly wholly
I am wholly wholly wh[D/F#]olly I am wholly wholly wholly (continued next bar)


E|--------5----5--------4--------5h7p5---------------------------|
B|--------5----5--------5--------5-------3h5p3p2-----------------|
G|------------------------------------------------4--2-----------|
D|------------------------------------------------------4--2-----|
A|----------------4--4-----5--5-------------------------------4--|
E|--5--5-----5---------------------------------------------------|

Hybrid picking on this (pick & middle+ring) smilar to intro

Yours

I am full of earth and dirt and you…

To play the most songs, including Wholly Yours by David Crowder Band by ukulele, the most important basic ukulele chords to learn are C chord, D chord, G chord, and Em chord.
These set you up to play a a lot of songs, and each of them is easy to master.

Leave a Reply

Your email address will not be published.