Wings of Darkness by Third Day Ukulele Chords

Posted on

If you are looking for Wings of Darkness ukulele chords, you’ve come to the best site.
You can play versatile instrument Wings of Darkness using ukulele or guitar.
This song by Third Day can also be played by that instruments.
=

Wings of Darkness chords has Ballade rhythm and included in Revelation (2008) album.
You can also find another musical style, including jazz ukulele chords, country music ukulele chords, pop ukulele chords, world music ukulele chords, and rock ukulele chords here.

Wings of Darkness by Third Day Ukulele Chords

Wings of Darkness-Tarot

Tunning: 1/2 Down step (D# G# C# F# A# D#) For guitars and bass.

W


D#||-------------------|
A#||-------------------|
F#||-------------------|
C#||-------------------|
G#||-------------------|
D#||-------------------|


---------------------------------------------------------------------------------|
---------------------------------------------------------------------------------|
--10---------------------9-----------10-----9--------9--7--10--9-----------10----|
---7---------------------7------------7-----7--------7--7---7--7------------7----|
----------------------------0--0--0------0-----0--0---------------0--0--0------0-|
---------------------------------------------------------------------------------|

E E E E E E E E E E E E E E E Q. Q Q Q


-------------------------------------------------------------------------|
-------------------------------------------------------------------------|
--10--9-----------10-----9--------9--7--10--9----------------------------|
---7--7------------7-----7--------7--7---7--7-----10------7----2---------|
---------0--0--0------0-----0--0---------------0---8------5----2---------|
---------------------------------------------------------------0---------|

E E E E E E E E E E E E E E E E E E E Q. Q


---------------------------------------------------------------------------|
---------------------------------------------------------------------------|
--10--9-----------10-----9--------9--7--10--9-----------10-----9------7----|
---7--7------------7-----7--------7--7---7--7------------7-----7------5----|
---------0--0--0------0-----0--0---------------0--0--0------0--------------|
---------------------------------------------------------------------------|

E E E E E E E E E E E E E E E Q. Q Q Q


-------------------------------------------------------------------------|
-------------------------------------------------------------------------|
--10--9-----------10-----9--------9--7--10--9----------------------------|
---7--7------------7-----7--------7--7---7--7-----10------7----2---------|
---------0--0--0------0-----0--0---------------0---8------5----2---------|
---------------------------------------------------------------0---------|

Q E E E E E E E E E E E E E Q. E E E E E E


-----------------------------------------------------------------------|
-----------------------------------------------------------------------|
-----------------------------------------------------------------------|
-----------------------------------------------------------------------|
--3-------------------------------------3-----3------------------------|
--1----1--1--1--1--1--1--1--1--1--1--1--1--1--1------1--1--1--1--1--1--|

E E E E E Q Q E E E E E E Q E E E E Q


-----------------------------------------------------------|----------|
-----------------------------------------------------------|----------|
-----------------------------------------------------------|----------|
----------------------2----------------------2-------------|----------|
-----------------5----0----0--3--2--0--3--2--0----0--3--2--|--0--5----|
--1--1--1--1--1--3-----------------------------------------|-----3----|

Q. E E E E E E E E E E E E E Q. E E E E E


----------------------------------------------------------------------|
----------------------------------------------------------------------|
----------------------------------------------------------------------|
----------------------------------------------------------------------|
--3---------------------------------------3-----3---------------------|
--1------1--1--1--1--1--1--1--1--1--1--1--1--1--1------1--1--1--1--1--|

E E E E E E Q Q E E E E E E Q E E E E


-----------------------------------------------------------------|
-----------------------------------------------------------------|
-----------------------------------------------------------------|
-------------------------2----------------------2----------------|
--------------------5----0----0--3--2--0--3--2--0----0--3--2--0--|
--1--1--1--1--1--1--3--------------------------------------------|

E E H. E E H. E E H E E E E Q


----------------------------------------|-----------------|-------------------|
----------------------------------------|-----------------|-------------------|
----------------------------------------|-----------------|-------------------|
--4-----5------------4-----2------------|-----------------|--5-----2----------|
--2-----3------------2-----0------------|--5-----3--------|--3-----0-----5----|
----------------------------------------|--3-----1--------|--------------3----|


--------------------------|
--------------------------|
--------------------------|
--------------------------|
--------------------------|
--3--3--3--3--3--3--3--3--|

E E E E E E E E E E E E E E E E E E E Q. Q


---------------------------------------------------------------------------|
---------------------------------------------------------------------------|
--10--9-----------10-----9--------9--7--10--9-----------10-----9------7----|
---7--7------------7-----7--------7--7---7--7------------7-----7------5----|
---------0--0--0------0-----0--0---------------0--0--0------0--------------|
---------------------------------------------------------------------------|

E E E E E E E E E E E E E E E Q. Q Q Q


-------------------------------------------------------------------------|
-------------------------------------------------------------------------|
--10--9-----------10-----9--------9--7--10--9----------------------------|
---7--7------------7-----7--------7--7---7--7-----10------7----2---------|
---------0--0--0------0-----0--0---------------0---8------5----2---------|
---------------------------------------------------------------0---------|

Q E E E E E E E E E E E E E Q. E E E E E E


-----------------------------------------------------------------------|
-----------------------------------------------------------------------|
-----------------------------------------------------------------------|
-----------------------------------------------------------------------|
--3-------------------------------------3-----3------------------------|
--1----1--1--1--1--1--1--1--1--1--1--1--1--1--1------1--1--1--1--1--1--|

E E E E E Q Q E E E E E E Q E E E E Q


-----------------------------------------------------------|----------|
-----------------------------------------------------------|----------|
-----------------------------------------------------------|----------|
----------------------2----------------------2-------------|----------|
-----------------5----0----0--3--2--0--3--2--0----0--3--2--|--0--5----|
--1--1--1--1--1--3-----------------------------------------|-----3----|

Q. E E E E E E E E E E E E E Q. E E E E E


----------------------------------------------------------------------|
----------------------------------------------------------------------|
----------------------------------------------------------------------|
----------------------------------------------------------------------|
--3---------------------------------------3-----3---------------------|
--1------1--1--1--1--1--1--1--1--1--1--1--1--1--1------1--1--1--1--1--|

E E E E E E Q Q E E E E E E Q E E E E


-----------------------------------------------------------------|
-----------------------------------------------------------------|
-----------------------------------------------------------------|
-------------------------2----------------------2----------------|
--------------------5----0----0--3--2--0--3--2--0----0--3--2--0--|
--1--1--1--1--1--1--3--------------------------------------------|

E E H. E E H. E E H


----------------------------------------|-----------------|
----------------------------------------|-----------------|
----------------------------------------|-----------------|
--4-----5------------4-----2------------|-----------------|
--2-----3------------2-----0------------|--5-----3--------|
----------------------------------------|--3-----1--------|

E E E E H. E E H. E E H. E E


---------------------------------|----------------------------------------|
---------------------------------|----------------------------------------|
---------------------------------|----------------------------------------|
--5-----2------------------------|--5------------4-----2------------------|
--3-----0-----5------------0--2--|--3------------2-----0------------5-----|
--------------3------------------|----------------------------------3-----|

H E E E E Q. Q Q Q


-----------------------|------------------------|
-----------------------|------------------------|
-----------------------|------------------------|
-----------5-----2-----|------------------------|
--3--------3-----0-----|--5------L----2---------|
--1--------------------|--3------L----0---------|

Q E Q E Q E Q E H


-------------------------------------------|
-------------------------------------------|
------------------5---------------7--------|
--2-------2-------3-------5-------5--------|
--0-------2---------------3----------------|
-------0-------0-------0-------0-----------|

Q E Q E Q E Q E Q Q


--------------------------------------------|
--------------------------------------------|
------------------5---------------7---------|
--2-------2-------3-------5-------5----5----|
--0-------2---------------3------------3----|
-------0-------0-------0-------0------------|

Q E Q E Q E Q E H


-------------------------------------------|
-------------------------------------------|
------------------5---------------7--------|
--2-------2-------3-------5-------5--------|
--0-------2---------------3----------------|
-------0-------0-------0-------0-----------|

PM PM PM PM PM PM PM PM PM PM PM PM PM PM PM PM


--------------------------------------------------|
--------------------------------------------------|
--------------------------------------------------|
--5--5--5--4--4--4--2--2--2-----------------------|
--3--3--3--2--2--2--0--0--0--6--6--6--3--3--2--2--|
-----------------------------4--4--4--1--1--0--0--|

Q E E E E E E E E E E E E E Q. E E E E E E


-----------------------------------------------------------------------|
-----------------------------------------------------------------------|
-----------------------------------------------------------------------|
-----------------------------------------------------------------------|
--3-------------------------------------3-----3------------------------|
--1----1--1--1--1--1--1--1--1--1--1--1--1--1--1------1--1--1--1--1--1--|

E E E E E Q Q E E E E E E Q E E E E Q


-----------------------------------------------------------|----------|
-----------------------------------------------------------|----------|
-----------------------------------------------------------|----------|
----------------------2----------------------2-------------|----------|
-----------------5----0----0--3--2--0--3--2--0----0--3--2--|--0--5----|
--1--1--1--1--1--3-----------------------------------------|-----3----|

Q. E E E E E E E E E E E E E Q. E E E E E


----------------------------------------------------------------------|
----------------------------------------------------------------------|
----------------------------------------------------------------------|
----------------------------------------------------------------------|
--3---------------------------------------3-----3---------------------|
--1------1--1--1--1--1--1--1--1--1--1--1--1--1--1------1--1--1--1--1--|

E E E E E E Q Q E E E E E E Q E E E E


-----------------------------------------------------------------|
-----------------------------------------------------------------|
-----------------------------------------------------------------|
-------------------------2----------------------2----------------|
--------------------5----0----0--3--2--0--3--2--0----0--3--2--0--|
--1--1--1--1--1--1--3--------------------------------------------|

E E H. E E H. E E H


----------------------------------------|-----------------|
----------------------------------------|-----------------|
----------------------------------------|-----------------|
--4-----5------------4-----2------------|-----------------|
--2-----3------------2-----0------------|--5-----3--------|
----------------------------------------|--3-----1--------|

E E E E H. E E H. E E H. E E


---------------------------------|----------------------------------------|
---------------------------------|----------------------------------------|
---------------------------------|----------------------------------------|
--5-----2------------------------|--5------------4-----2------------------|
--3-----0-----5------------0--2--|--3------------2-----0------------5-----|
--------------3------------------|----------------------------------3-----|

H E E E E Q. Q Q Q


-----------------------|------------------------|
-----------------------|------------------------|
-----------------------|------------------------|
-----------5-----2-----|------------------------|
--3--------3-----0-----|--5------L----2---------|
--1--------------------|--3------L----0---------|

Q E Q E Q E Q E H


-------------------------------------------|
-------------------------------------------|
------------------5---------------7--------|
--2-------2-------3-------5-------5--------|
--0-------2---------------3----------------|
-------0-------0-------0-------0-----------|

Q E Q E Q E Q E Q Q


--------------------------------------------|
--------------------------------------------|
------------------5---------------7---------|
--2-------2-------3-------5-------5----5----|
--0-------2---------------3------------3----|
-------0-------0-------0-------0------------|

Q E Q E Q E Q E H


-------------------------------------------|
-------------------------------------------|
------------------5---------------7--------|
--2-------2-------3-------5-------5--------|
--0-------2---------------3----------------|
-------0-------0-------0-------0-----------|

PM PM PM PM PM PM PM PM PM PM PM PM PM PM PM PM


--------------------------------------------------|
--------------------------------------------------|
--------------------------------------------------|
--5--5--5--4--4--4--2--2--2-----------------------|
--3--3--3--2--2--2--0--0--0--6--6--6--3--3--2--2--|
-----------------------------4--4--4--1--1--0--0--|

Q E E E E E E E E E E E E E Q. E E E E E E


-----------------------------------------------------------------------|
-----------------------------------------------------------------------|
-----------------------------------------------------------------------|
-----------------------------------------------------------------------|
--3-------------------------------------3-----3------------------------|
--1----1--1--1--1--1--1--1--1--1--1--1--1--1--1------1--1--1--1--1--1--|

E E E E E Q Q E E E E E E Q E E E E Q


-----------------------------------------------------------|----------|
-----------------------------------------------------------|----------|
-----------------------------------------------------------|----------|
----------------------2----------------------2-------------|----------|
-----------------5----0----0--3--2--0--3--2--0----0--3--2--|--0--5----|
--1--1--1--1--1--3-----------------------------------------|-----3----|

Q. E E E E E E E E E E E E E Q. E E E E E


----------------------------------------------------------------------|
----------------------------------------------------------------------|
----------------------------------------------------------------------|
----------------------------------------------------------------------|
--3---------------------------------------3-----3---------------------|
--1------1--1--1--1--1--1--1--1--1--1--1--1--1--1------1--1--1--1--1--|

E E E E E E Q Q E E E E E E Q E E E E


-----------------------------------------------------------------|
-----------------------------------------------------------------|
-----------------------------------------------------------------|
-------------------------2----------------------2----------------|
--------------------5----0----0--3--2--0--3--2--0----0--3--2--0--|
--1--1--1--1--1--1--3--------------------------------------------|

E E H. E E H. E E H


----------------------------------------|-----------------|
----------------------------------------|-----------------|
----------------------------------------|-----------------|
--4-----5------------4-----2------------|-----------------|
--2-----3------------2-----0------------|--5-----3--------|
----------------------------------------|--3-----1--------|

E E E E H. E E H. E E H. E E


---------------------------------|----------------------------------------|
---------------------------------|----------------------------------------|
---------------------------------|----------------------------------------|
--5-----2------------------------|--5------------4-----2------------------|
--3-----0-----5------------0--2--|--3------------2-----0------------5-----|
--------------3------------------|----------------------------------3-----|

H E E E E Q. Q Q Q


-----------------------|------------------------|
-----------------------|------------------------|
-----------------------|------------------------|
-----------5-----2-----|------------------------|
--3--------3-----0-----|--5------L----2---------|
--1--------------------|--3------L----0---------|

Q E Q E Q E Q E H


-------------------------------------------|
-------------------------------------------|
------------------5---------------7--------|
--2-------2-------3-------5-------5--------|
--0-------2---------------3----------------|
-------0-------0-------0-------0-----------|

Q E Q E Q E Q E Q Q


--------------------------------------------|
--------------------------------------------|
------------------5---------------7---------|
--2-------2-------3-------5-------5----5----|
--0-------2---------------3------------3----|
-------0-------0-------0-------0------------|

Q E Q E Q E Q E H


-------------------------------------------|
-------------------------------------------|
------------------5---------------7--------|
--2-------2-------3-------5-------5--------|
--0-------2---------------3----------------|
-------0-------0-------0-------0-----------|

PM PM PM PM PM PM PM PM PM PM PM PM PM PM PM PM


--------------------------------------------------|
--------------------------------------------------|
--------------------------------------------------|
--5--5--5--4--4--4--2--2--2-----------------------|
--3--3--3--2--2--2--0--0--0--6--6--6--3--3--2--2--|
-----------------------------4--4--4--1--1--0--0--|

Q E Q E Q E Q E H


-------------------------------------------|
-------------------------------------------|
------------------5---------------7--------|
--2-------2-------3-------5-------5--------|
--0-------2---------------3----------------|
-------0-------0-------0-------0-----------|

Q E Q E Q E Q E Q Q


--------------------------------------------|
--------------------------------------------|
------------------5---------------7---------|
--2-------2-------3-------5-------5----5----|
--0-------2---------------3------------3----|
-------0-------0-------0-------0------------|

Q E Q E Q E Q E H


-------------------------------------------|
-------------------------------------------|
------------------5---------------7--------|
--2-------2-------3-------5-------5--------|
--0-------2---------------3----------------|
-------0-------0-------0-------0-----------|

PM PM PM PM PM PM PM PM PM PM PM PM PM PM PM PM


--------------------------------------------------|
--------------------------------------------------|
--------------------------------------------------|
--5--5--5--4--4--4--2--2--2-----------------------|
--3--3--3--2--2--2--0--0--0--6--6--6--3--3--2--2--|
-----------------------------4--4--4--1--1--0--0--|

PM PM PM PM PM PM PM PM PM PM PM PM PM PM PM PM


--------------------------------------------------|
--------------------------------------------------|
--------------------------------------------------|
--5--5--5--4--4--4--2--2--2-----------------------|
--3--3--3--2--2--2--0--0--0--6--6--6--3--3--2--2--|
-----------------------------4--4--4--1--1--0--0--|

PM PM PM PM PM PM PM PM PM PM PM PM PM PM PM PM


--------------------------------------------------|
--------------------------------------------------|
--------------------------------------------------|
--5--5--5--4--4--4--2--2--2-----------------------|
--3--3--3--2--2--2--0--0--0--6--6--6--3--3--2--2--|
-----------------------------4--4--4--1--1--0--0--|

W W


------------------------------------|
------------------------------------|
------------------------------------|
------------------------------------|
--7----------------L----------------|
--5----------------L----------------|

H. H. H. H Q


-----------------------------------------------------------------|
-----------------------------------------------------------------|
-----------------------------------------------------------------|
-----------------------------------------------------------------|
--(8)------------(7)------------(5)------------------------------|
-----------------------------------------------(8)--------(7)----|

W W W


-------------------------------------------------------||
-------------------------------------------------------||
-------------------------------------------------------||
--(7)----------------L----------------L----------------||
--(7)----------------L----------------L----------------||
--(5)----------------L----------------L----------------||

_______________________________________________________________________________
_______________________________________________________________________________
_______________________________________________________________________________

Lead/Guitar solo

W W W W


D#||-------------------|-----------------------------------------------------|
A#||-------------------|-----------------------------------------------------|
F#||-------------------|-----------------------------------------------------|
C#||-------------------|-----------------------------------------------------|
G#||-------------------|-----------------------------------------------------|
D#||-------------------|-----------------------------------------------------|

W W W


-----------------------------------------------------|
-----------------------------------------------------|
-----------------------------------------------------|
-----------------------------------------------------|
-----------------------------------------------------|
-----------------------------------------------------|

W W W


-----------------------------------------------------|
-----------------------------------------------------|
-----------------------------------------------------|
-----------------------------------------------------|
-----------------------------------------------------|
-----------------------------------------------------|

W W W


-----------------------------------------------------|
-----------------------------------------------------|
-----------------------------------------------------|
-----------------------------------------------------|
-----------------------------------------------------|
-----------------------------------------------------|

W W W


-----------------------------------------------------|
-----------------------------------------------------|
-----------------------------------------------------|
-----------------------------------------------------|
-----------------------------------------------------|
-----------------------------------------------------|

W W H Q.


---------------------------------------------|---------|
---------------------------------------------|---------|
---------------------------------------------|---------|
---------------------------------------------|---------|
---------------------------------------------|---------|
---------------------------------------------|---------|

W W W


-----------------------------------------------------|
-----------------------------------------------------|
-----------------------------------------------------|
-----------------------------------------------------|
-----------------------------------------------------|
-----------------------------------------------------|

W H. S S S S S S S S S S S


---------------------------------------------------|
---------------------------------------------------|
---------------------------------------------------|
---------------------------------------------------|
--------------------------------(12)-(10)-(0)-(10--|-(7)-(0)-(7)-(5)-(0)-(5)-(3)-(
---------------------------------------------------|

W W H. H.


------------------------------------|---------------|---------------|
------------------------------------|---------------|---------------|
------------------------------------|---------------|---------------|
------------------------------------|---------------|---------------|
------------------------------------|---------------|---------------|
------------------------------------|---------------|---------------|

W W W W


-------------------|-----------------------------------------------------|
-------------------|-----------------------------------------------------|
-------------------|-----------------------------------------------------|
-------------------|-----------------------------------------------------|
-------------------|-----------------------------------------------------|
-------------------|-----------------------------------------------------|

W W W


-----------------------------------------------------|
-----------------------------------------------------|
-----------------------------------------------------|
-----------------------------------------------------|
-----------------------------------------------------|
-----------------------------------------------------|

W W W


-----------------------------------------------------|
-----------------------------------------------------|
-----------------------------------------------------|
-----------------------------------------------------|
-----------------------------------------------------|
-----------------------------------------------------|

PH PH
W H. E H E Q.


---------------------------------------------------|--------------|
---------------------------------------------------|--------------|
-----------------------------------12b--------L--|--14br------|
---------------------------------------------------|--------------|
---------------------------------------------------|--------------|
---------------------------------------------------|--------------|

PH
Q H W W Q


----------------------------------------------------------|
----------------------------------------------------------|
--L----14--------L--------------------------------------|
----------------------------------------------------------|
----------------------------------------------------------|
----------------------------------------------------------|

/2
W W Q. S S E E


------------------------------------------------------------|
------------------------------------14------13------------|
-------------------------------------------------14-12--14--|
------------------------------------------------------------|
------------------------------------------------------------|
------------------------------------------------------------|

W
Q H W Q H.


--------------------------------------------|---------------|
--------------------------------------------|---------------|
---L----------------------------------------|---------------|
--------12b--------14---------------------|---------------|
--------------------------------------------|---------------|
--------------------------------------------|---------------|

W. W W W


-------------------|------------------------------------|-------------------|
-------------------|------------------------------------|-------------------|
-------------------|------------------------------------|-------------------|
-------------------|------------------------------------|-------------------|
-------------------|------------------------------------|-------------------|
-------------------|------------------------------------|-------------------|

W E W W


----------------------|------------------------------------|
----------------------|------------------------------------|
----------------------|------------------------------------|
----------------------|------------------------------------|
----------------------|------------------------------------|
----------------------|------------------------------------|

W W W W


------------------------------------|------------------------------------|
------------------------------------|------------------------------------|
------------------------------------|------------------------------------|
------------------------------------|------------------------------------|
------------------------------------|------------------------------------|
------------------------------------|------------------------------------|

( Tab from: http://www.guitartabs.cc/tabs/t/tarot/wings_of_darkness_tab.html )
W W


------------------------------------|
------------------------------------|
------------------------------------|
------------------------------------|
------------------------------------|
------------------------------------|

SH SH PH SH SH SH PH
E Q E E E E Q S S E E E E E H


--------------------------------------------------------------------------------|
--------------------------------------------------------------------------------|
--------------------------------12b----12p-9----------------------------------|
--10--------------10------10-----------------12--10--------------10--12b--|
--------12----12------12-----------------------------10--12---------------|
--------------------------------------------------------------------------------|

W
H Q. Q S S S S W E Q.


-----------------------------------------------------------|---------|
------------------15b----15-13-12--------------------------|---------|
--9--------L----------------------12-14~----------------L--|--L------|
-----------------------------------------------------------|---------|
-----------------------------------------------------------|---------|
-----------------------------------------------------------|---------|

PH PH
Q S S E E E E E E H S S S S S S S S


-------------------------------------------------------17-15----15---------------|
-------------------------------------------------------------17----17-15-------1-|
--17b----17-16-----14--17--16------------------------------------------17-16---|
-----------------17--------------17--14--17br----------------------------------|
---------------------------------------------------------------------------------|
---------------------------------------------------------------------------------|

S S H E E E Q. E E E E E Q. E Q


--------------------------------------------------------------------------------|
--------------------------------------------------------------------------------|
---------------------------------------------------------------------12---------|
-------------------------------17b------14------------------12b----------17b----|
--15-17-17b--------15------15---------------17--15------15----------------------|
-----------------------17---------------------------17--------------------------|

Q E E E E E S S S S S S Q. S S S S E


-----------------------------------------------------17-15-------15b--|
--------------------------------------13----15b------------15-17------|
---------------12--14--L--14-12----12----14---------------------------|
--L----12--14-------------------14------------------------------------|
----------------------------------------------------------------------|
----------------------------------------------------------------------|

E S S S S S S S S S S


--L--15----------15----------------|
--------17-15-17----17-15-17-15----|
--------------------------------17-|
-----------------------------------|
-----------------------------------|
-----------------------------------|

S S S S S S S S S S S S S S S S S Q S S S


--------------------------------------------------------------------|
--------------------------------------------------------------------|
--16-17-16----------------------------------------------------------|
-----------17-14-17-14----------------------------------------------|
-----------------------17-15-17-15-14----14-12-14-------------------|
--------------------------------------17----------17-15----12-15-17-|

S S S S S S E S S Q. Q S S H E


---------------------------------------23b----17-------------------|
--------------------15b--------------------------17----------------|
--------------14-16------17----17-------------------17~---------L--|
--------14-17---------------19-------------------------------------|
--15-17------------------------------------------------------------|
-------------------------------------------------------------------|

PH 4


----------------------15----------|-------------------------------|
------------------17------17--15--|-------------------17--------|
--17--16------17------------------|--17--17b--------------------|
----------17----------------------|-------------------------------|
----------------------------------|-------------------------------|
----------------------------------|-------------------------------|

W W W W


------------------------------------|------------------------------------|
------------------------------------|------------------------------------|
------------------------------------|------------------------------------|
------------------------------------|------------------------------------|
------------------------------------|------------------------------------|
------------------------------------|------------------------------------|

W W W W


------------------------------------|------------------------------------|
------------------------------------|------------------------------------|
------------------------------------|------------------------------------|
------------------------------------|------------------------------------|
------------------------------------|------------------------------------|
------------------------------------|------------------------------------|

W W W


-----------------------------------------------------|
-----------------------------------------------------|
-----------------------------------------------------|
-----------------------------------------------------|
-----------------------------------------------------|
-----------------------------------------------------|

PH
W W S S S S S S S S Q E


------------------------------------------------------------|----------------|
------------------------------------------------------------|----------------|
------------------------------------14-16-17-16-------------|---------12b--|
------------------------------------------------14-17-19-17-|----------------|
------------------------------------------------------------|--14b-----------|
------------------------------------------------------------|----------------|

H H W W


-------------------------------------------------------|
-------------------------------------------------------|
---L--------L------------------------------------------|
-------------------------------------------------------|
-------------------------------------------------------|
-------------------------------------------------------|

W E S S S S S S S S S S S S S S S S S S S


----------------------20-19-17----20-19-17----19-17-------19-17-------15---------|
-------------------------------20----------20-------20-17-------20-17----17-15---|
-------------------------------------------------------------------------------1-|
---------------------------------------------------------------------------------|
---------------------------------------------------------------------------------|
---------------------------------------------------------------------------------|

PH 2
Q W H. H. W.


-------12b----------------15------------|---------------|-------------------|
--L---------------------------------------|---------------|-------------------|
------------------------------------------|---------------|-------------------|
------------------------------------------|---------------|-------------------|
------------------------------------------|---------------|-------------------|
------------------------------------------|---------------|-------------------|

W W W W E


------------------------------------|-------------------|----------------------|
------------------------------------|-------------------|----------------------|
------------------------------------|-------------------|----------------------|
------------------------------------|-------------------|----------------------|
------------------------------------|-------------------|----------------------|
------------------------------------|-------------------|----------------------|

W W W W


------------------------------------|------------------------------------|
------------------------------------|------------------------------------|
------------------------------------|------------------------------------|
------------------------------------|------------------------------------|
------------------------------------|------------------------------------|
------------------------------------|------------------------------------|

W W W W


------------------------------------|------------------------------------|
------------------------------------|------------------------------------|
------------------------------------|------------------------------------|
------------------------------------|------------------------------------|
------------------------------------|------------------------------------|
------------------------------------|------------------------------------|

W W W W


------------------------------------|------------------------------------|
------------------------------------|------------------------------------|
------------------------------------|------------------------------------|
------------------------------------|------------------------------------|
------------------------------------|------------------------------------|
------------------------------------|------------------------------------|

W W W W


------------------------------------|------------------------------------|
------------------------------------|------------------------------------|
------------------------------------|------------------------------------|
------------------------------------|------------------------------------|
------------------------------------|------------------------------------|
------------------------------------|------------------------------------|

W W W W


------------------------------------|------------------------------------|
------------------------------------|------------------------------------|
------------------------------------|------------------------------------|
------------------------------------|------------------------------------|
------------------------------------|------------------------------------|
------------------------------------|------------------------------------|

W W


------------------------------------|
------------------------------------|
------------------------------------|
------------------------------------|
------------------------------------|
------------------------------------|

W W W


-----------------------------------------------------|
-----------------------------------------------------|
-----------------------------------------------------|
-----------------------------------------------------|
-----------------------------------------------------|
-----------------------------------------------------|

W W W


-----------------------------------------------------||
-----------------------------------------------------||
-----------------------------------------------------||
-----------------------------------------------------||
-----------------------------------------------------||
-----------------------------------------------------||

_________________________________________________________________________
_________________________________________________________________________
_________________________________________________________________________

Bass:

W


F#||-------------------|
C#||-------------------|
G#||-------------------|
D#||-------------------|


--------------------------------------------------------------------------|
--------------------------------------------------------------------------|
--0--0--0--0--0--0--0--0--0--0--3--2--0--0--0--0--0--0--0--0--0--0--0--0--|
--------------------------------------------------------------------------|

E E E E E E E E E E E E E E E E E E E E Q Q


------------------------------------------------------------------------|
--------------------------------------------------------0--L--2---------|
--0--0--0--0--0--0--0--0--0--0--3--2--0--0--0--3--L--3------------------|
------------------------------------------------------------------------|


--------------------------------------------------------------------------|
--------------------------------------------------------------------------|
--0--0--0--0--0--0--0--0--0--0--3--2--0--0--0--0--0--0--0--0--0--0--0--0--|
--------------------------------------------------------------------------|

E E E E E E E E E E E E E E E E E E E E Q Q


------------------------------------------------------------------------|
--------------------------------------------------------0--L--2---------|
--0--0--0--0--0--0--0--0--0--0--3--2--0--0--0--3--L--3------------------|
------------------------------------------------------------------------|

Q E E E E E E E E E E E E E E E E E E E E E E


-------------------------------------------------------------------------|
-------------------------------------------------------------------------|
-------------------------------------------------------------------------|
--1----1--1--1--1--1--1--1--1--1--1--1--1-----1--L--L--1--1--1--1--1--1--|

E E E E E E E E E E E E E E E E E E E E E Q


--------------------------------------------------------------|----------|
--------------------------------------------------------------|----------|
-----------------------0--L--0--3--2--0--3--2--0--L--0--3--2--|--0-------|
--1--1--1--1--1--3--------------------------------------------|-----3----|

Q E E E E E E E E E E E E E E E E E E E E E E


-------------------------------------------------------------------------|
-------------------------------------------------------------------------|
-------------------------------------------------------------------------|
--1----L--1--1--1--1--1--1--1--1--1--1--1--1-----1--L--L--1--1--1--1--1--|


--------------------------------------------------------------------|
--------------------------------------------------------------------|
--------------------------0--L--0--3--2--0--3--2--0--L--0--3--2--0--|
--1--1--1--1--1--1--3--L--------------------------------------------|

Q Q Q Q Q Q Q Q Q Q Q Q Q Q


------------------------------------------|-----------------|-----------------|
------------------------------------------|-----------------|-----------------|
--2----3----L----L----2----0----L----L----|-----------------|--3----0---------|
------------------------------------------|--3----1----L----|------------3----|


--------------------------|
--------------------------|
--------------------------|
--3--3--3--3--3--3--3--3--|


--------------------------------------------------------------------------|
--------------------------------------------------------------------------|
--0--0--0--0--0--0--0--0--0--0--3--2--0--0--0--0--0--0--0--0--0--0--0--0--|
--------------------------------------------------------------------------|

E E E E E E E E E E E E E E E E E E E E Q Q


------------------------------------------------------------------------|

To play the most songs, including Wings of Darkness by Third Day by ukulele, the most important basic ukulele chords to learn are C chord, D chord, G chord, and Em chord.
These set you up to play a ton of songs, and each of them is easy to master.

Leave a Reply

Your email address will not be published.