Wishing Wells by Outlaws Ukulele Chords

Posted on

If you are looking for Wishing Wells ukulele chords, you’ve come to the best site.
You can play versatile instrument Wishing Wells using ukulele or guitar.
This song by Outlaws can also be played by that instruments.
=

Wishing Wells chords has rhythm and included in Ghost Riders (1980) album.
You can also find another musical style, including jazz ukulele chords, country music ukulele chords, pop ukulele chords, world music ukulele chords, and rock ukulele chords here.

Wishing Wells by Outlaws Ukulele Chords

wr .hr er s s q .q s .e et.h s s q .q s .e et.h

e|---------------|----------------|--------------------|---------------|--------------------|
B|---------------|----------------|------2---3/5----3--|---------------|------2---3/5----3--|
G|---------------|---------2---2--|--2---2---2/4----2--|--------2---2--|--2---2---2/4----2--|
D|---------------|---------2---2--|--2-----------------|--------2---2--|--2-----------------|
A|---------------|---------0---0--|--0-----------------|--------0---0--|--0-----------------|
E|---------------|----------------|--------------------|---------------|--------------------|

e e q q .q s .e et.h s s q .q s .e et.h pick scrpe


e|------2/42----|--------------------|---------------|--------------------|-------------|
B|------2/42----|------2---3/5----3--|---------------|------2---3/5----3--|-------------|
G|---------------|--2---2---2/4----2--|--------2---2--|--2---2---2/4----2--|-------------|
D|---------------|--2-----------------|--------2---2--|--2-----------------|-------------|
A|---------------|--0-----------------|--------0---0--|--0-----------------|-------------|
E|---------------|--------------------|---------------|--------------------|-------------|

q .q s .e et.h e e q q .q s .e et.h e e q


e|--------------------|------2/42----|--------------------|------2/42----|
B|------2---3/5----3--|------2/42----|------2---3/5----3--|------2/42----|
G|--2---2---2/4----2--|---------------|--2---2---2/4----2--|---------------|
D|--2-----------------|---------------|--2-----------------|---------------|
A|--0-----------------|---------------|--0-----------------|---------------|
E|--------------------|---------------|--------------------|---------------|

.q q q ete e q q e er


e|------------------|---------------------|
B|------------------|---------------------|
G|--2---4---6---6---|--7---7---7----------|
D|--2---4---6---6---|--7---7---7---7-----|
A|--0---2---4---4---|--5---5---5---5-----|
E|------------------|---------------------|

1st Verse

q q q s s e q q q s s e q q q s s e q q q s s e


e|-----------------------|-----------------------|-----------------------|-----------------------|
B|-----------------------|-----------------------|-----------------------|-----------------------|
G|-----------------------|-----------------------|-----------------------|-----------------------|
D|--2---4---2---------2--|-----------------------|--2---4---2---------2--|-----------------------|
A|--0---0---0---3h4------|--2---4---2---------2--|--0---0---0---3h4------|--2---4---2---------2--|
E|-----------------------|--0---0---0---3h4------|-----------------------|--0---0---0---3h4------|

q q s s e s s e q q s s e s s e q q q q er e e e e e e e


e|----------------------------|----------------------------|--------------|-------------------------|
B|----------------------------|----------------------------|--------------|-------------------------|
G|--5--5----------------------|----------------------------|--7--7--7--7--|----8--8--8--8--8--8--9--|
D|--5--5---------5---7p5------|--5--5----------------------|--7--7--7--7--|----8--8--8--8--8--8--9--|
A|--3--3---5/7-------------7--|--5--5---------5---7p5------|--5--5--5--5--|----6--6--6--6--6--6--7--|
E|----------------------------|--3--3---5/7-------------7--|--------------|-------------------------|

q q q s s e q q q s s e q q q s s e q q q s s e


e|-----------------------|-----------------------|-----------------------|-----------------------|
B|-----------------------|-----------------------|-----------------------|-----------------------|
G|-----------------------|-----------------------|-----------------------|--2---4---2---------2--|
D|--2---4---2---------2--|-----------------------|--2---4---2---------2--|--0---0---0---3h4------|
A|--0---0---0---3h4------|--2---4---2---------2--|--0---0---0---3h4------|-----------------------|
E|-----------------------|--0---0---0---3h4------|-----------------------|-----------------------|

q q q s s e q q q s s e


e|-----------------------|-----------------------|
B|-----------------------|-----------------------|
G|-----------------------|-----------------------|
D|--2---4---2---------2--|-----------------------|
A|--0---0---0---3h4------|--2---4---2---------2--|
E|-----------------------|--0---0---0---3h4------|

1st Prechorus

q e e er .q e e er htqte e e er .q e e er .e sr s sr q


e|------------------|---------------|---------------|------------2-------4-------5--|
B|--2---3/5------3--|--3/5-------3--|--3/5-------3--|--3/5--------------------------|
G|--3---2/4------2--|--2/4-------2--|--2/4-------2--|--2/4-------2-------4-------6--|
D|--0------------0--|------------0--|---------------|-------------------------------|
A|------------------|---------------|---------------|-------------------------------|
E|------------------|---------------|---------------|-------------------------------|

1st Chorus

.q q q ete e q q e er q .q s .e et.h e e q


e|------------------|---------------------|--------------------|------2/42----|
B|------------------|---------------------|------2---3/5----3--|------2/42----|
G|--2---4---6---6---|--7---7---7----------|--2---2---2/4----2--|---------------|
D|--2---4---6---6---|--7---7---7---7-----|--2-----------------|---------------|
A|--0---2---4---4---|--5---5---5---5-----|--0-----------------|---------------|
E|------------------|---------------------|--------------------|---------------|

.q q q ete e q q e er q .q s .e et.h e e q


e|------------------|---------------------|--------------------|------2/42----|
B|------------------|---------------------|------2---3/5----3--|------2/42----|
G|--2---4---6---6---|--7---7---7----------|--2---2---2/4----2--|---------------|
D|--2---4---6---6---|--7---7---7---7-----|--2-----------------|---------------|
A|--0---2---4---4---|--5---5---5---5-----|--0-----------------|---------------|
E|------------------|---------------------|--------------------|---------------|

2nd Verse

q q q s s e q q q s s e q q q s s e q q q s s e


e|-----------------------|-----------------------|-----------------------|-----------------------|
B|-----------------------|-----------------------|-----------------------|-----------------------|
G|-----------------------|-----------------------|-----------------------|-----------------------|
D|--2---4---2---------2--|-----------------------|--2---4---2---------2--|-----------------------|
A|--0---0---0---3h4------|--2---4---2---------2--|--0---0---0---3h4------|--2---4---2---------2--|
E|-----------------------|--0---0---0---3h4------|-----------------------|--0---0---0---3h4------|

q q s s e s s e q q s s e s s e q q q q er e e e e e e e


e|----------------------------|----------------------------|--------------|-------------------------|
B|----------------------------|----------------------------|--------------|-------------------------|
G|--5--5----------------------|----------------------------|--7--7--7--7--|----8--8--8--8--8--8--9--|
D|--5--5---------5---7p5------|--5--5----------------------|--7--7--7--7--|----8--8--8--8--8--8--9--|
A|--3--3---5/7-------------7--|--5--5---------5---7p5------|--5--5--5--5--|----6--6--6--6--6--6--7--|
E|----------------------------|--3--3---5/7-------------7--|--------------|-------------------------|

q q q s s e q q q s s e q q q s s e q q q s s e


e|-----------------------|-----------------------|-----------------------|-----------------------|
B|-----------------------|-----------------------|-----------------------|-----------------------|
G|-----------------------|-----------------------|-----------------------|--2---4---2---------2--|
D|--2---4---2---------2--|-----------------------|--2---4---2---------2--|--0---0---0---3h4------|
A|--0---0---0---3h4------|--2---4---2---------2--|--0---0---0---3h4------|-----------------------|
E|-----------------------|--0---0---0---3h4------|-----------------------|-----------------------|

q q q s s e q q q s s e


e|-----------------------|-----------------------|
B|-----------------------|-----------------------|
G|-----------------------|-----------------------|
D|--2---4---2---------2--|-----------------------|
A|--0---0---0---3h4------|--2---4---2---------2--|
E|-----------------------|--0---0---0---3h4------|

2nd Prechorus

q e e er .q e e er htqte e e er .q e e er .e sr s sr q


e|------------------|---------------|---------------|------------2-------4-------5--|
B|--2---3/5------3--|--3/5-------3--|--3/5-------3--|--3/5--------------------------|
G|--3---2/4------2--|--2/4-------2--|--2/4-------2--|--2/4-------2-------4-------6--|
D|--0------------0--|------------0--|---------------|-------------------------------|
A|------------------|---------------|---------------|-------------------------------|
E|------------------|---------------|---------------|-------------------------------|

2nd Chorus

.q q q ete e q q e er q .q s .e et.h e e q


e|------------------|---------------------|--------------------|------2/42----|
B|------------------|---------------------|------2---3/5----3--|------2/42----|
G|--2---4---6---6---|--7---7---7----------|--2---2---2/4----2--|---------------|
D|--2---4---6---6---|--7---7---7---7-----|--2-----------------|---------------|
A|--0---2---4---4---|--5---5---5---5-----|--0-----------------|---------------|
E|------------------|---------------------|--------------------|---------------|

.q q q ete e q q e er e s s e s s e s s e s s


e|------------------|---------------------|--------------------------------------|
B|------------------|---------------------|--------------------------------------|
G|--2---4---6---6---|--7---7---7----------|--------------------------------------|
D|--2---4---6---6---|--7---7---7---7-----|--------------------------------------|
A|--0---2---4---4---|--5---5---5---5-----|--2--2--2--2--2--2--2--2--2--2--2--2--|
E|------------------|---------------------|--0--0--0--0--0--0--0--0--0--0--0--0--|

e s s e s s e s s e s s


e|--------------------------------------|
B|--------------------------------------|
G|--------------------------------------|
D|--------------------------------------|
A|--2--2--2--2--2--2--2--2--2--2--2--2--|
E|--0--0--0--0--0--0--0--0--0--0--0--0--|

Solo

e s t t s t t s s htq e e q q s e .e e s s e e s s


e|--3---3-----------------------------|-------------------|---------------------------------------|
B|--3-------5p3-----------------------|-------------------|-----------------------------2b---2p0--|
G|----------------4---2p0---2p0---2b--|------0---2b---2b--|--0-----------2b---2p0-----------------|
D|------------------------------------|--2----------------|------2---2--------------2-------------|
A|------------------------------------|-------------------|---------------------------------------|
E|------------------------------------|-------------------|---------------------------------------|

e e s s e e e e e .q .q qte e q q e e


e|--------------------------0------------|----------------|----------5---5---5---|
B|------------------------------------3--|----------------|----------5---5---5---|
G|------2b---2p0-------2b-------2b-------|--2b---2b---2b--|-----------------------|
D|--2--------------2---------------------|----------------|--2--2-----------------|
A|---------------------------------------|----------------|-----------------------|
E|---------------------------------------|----------------|-----------------------|

e s t t s t t s t t e e s t t s s s s e e q .q


e|--3---3---------0---------------------------0-------------|---------------------15b--|
B|--3-------5p3-------3p0------------------------3p0--------|--------------------------|
G|--------------------------2------------2b------------2p0--|--2b---2p0----------------|
D|------------------------------2p0-------------------------|-------------2---2--------|
A|------------------------------------2---------------------|--------------------------|
E|----------------------------------------------------------|--------------------------|

s s s s e s s s s s s s s s s


e|--15p12--------12---------------12--------------12---------12---------12--------|
B|----------15--------15b---15b--------------12--------15b--------15b--------15b--|
G|-------------------------------------14b----------------------------------------|
D|--------------------------------------------------------------------------------|
A|--------------------------------------------------------------------------------|
E|--------------------------------------------------------------------------------|


e|--12---------12---------12---------12---------12---------12---------12---------12--------|
B|-------15b--------15b--------15b--------15b--------15b--------15b--------15b--------15b--|
G|-----------------------------------------------------------------------------------------|
D|-----------------------------------------------------------------------------------------|
A|-----------------------------------------------------------------------------------------|
E|-----------------------------------------------------------------------------------------|

.e .e .e .e .e ste .e .e .e .e e


e|-------------------------------------------|------------------------------------|
B|--15pb---15pb---15pb---15pb---15pb---15pb--|--15pb---15pb---15pb---15pb---15pb--|
G|-------------------------------------------|------------------------------------|
D|-------------------------------------------|------------------------------------|
A|-------------------------------------------|------------------------------------|
E|-------------------------------------------|------------------------------------|

q e q e qte e q h


e|--------------------------------|-----------------|
B|--------------------------------|-----------------|
G|--14pbr---12---14pbr---12---14--|--------14---14--|
D|--------------------------------|--14---14---14--|
A|--------------------------------|--14------------|
E|--------------------------------|-----------------|

Intro reprise

q .q s .e et.h e e q q .q s .e et.h e e q


e|--------------------|------2/42----|--------------------|------2/42----|
B|------2---3/5----3--|------2/42----|------2---3/5----3--|------2/42----|
G|--2---2---2/4----2--|---------------|--2---2---2/4----2--|---------------|
D|--2-----------------|---------------|--2-----------------|---------------|
A|--0-----------------|---------------|--0-----------------|---------------|
E|--------------------|---------------|--------------------|---------------|

q .q s .e et.h e e q q .q s .e et.h e e q


e|--------------------|------2/42----|--------------------|------2/42----|
B|------2---3/5----3--|------2/42----|------2---3/5----3--|------2/42----|
G|--2---2---2/4----2--|---------------|--2---2---2/4----2--|---------------|
D|--2-----------------|---------------|--2-----------------|---------------|
A|--0-----------------|---------------|--0-----------------|---------------|
E|--------------------|---------------|--------------------|---------------|

.q q q ete e q q e er


e|------------------|---------------------|
B|------------------|---------------------|
G|--2---4---6---6---|--7---7---7----------|
D|--2---4---6---6---|--7---7---7---7-----|
A|--0---2---4---4---|--5---5---5---5-----|
E|------------------|---------------------|

3rd Verse

q q q s s e q q q s s e q q q s s e q q q s s e


e|-----------------------|-----------------------|-----------------------|-----------------------|
B|-----------------------|-----------------------|-----------------------|-----------------------|
G|-----------------------|-----------------------|-----------------------|--2---4---2---------2--|
D|--2---4---2---------2--|-----------------------|--2---4---2---------2--|--0---0---0---3h4------|
A|--0---0---0---3h4------|--2---4---2---------2--|--0---0---0---3h4------|-----------------------|
E|-----------------------|--0---0---0---3h4------|-----------------------|-----------------------|

q q q s s e q q q s s e


e|-----------------------|-----------------------|
B|-----------------------|-----------------------|
G|-----------------------|-----------------------|
D|--2---4---2---------2--|-----------------------|
A|--0---0---0---3h4------|--2---4---2---------2--|
E|-----------------------|--0---0---0---3h4------|

3rd Prechorus

q e e er .q e e er htqte e e er .q e e er .e sr s sr q


e|------------------|---------------|---------------|------------2-------4-------5--|
B|--2---3/5------3--|--3/5-------3--|--3/5-------3--|--3/5--------------------------|
G|--3---2/4------2--|--2/4-------2--|--2/4-------2--|--2/4-------2-------4-------6--|
D|--0------------0--|------------0--|---------------|-------------------------------|
A|------------------|---------------|---------------|-------------------------------|
E|------------------|---------------|---------------|-------------------------------|

3rd Chorus

.q q q ete e q q e er q .q s .e et.h e e q


e|------------------|---------------------|--------------------|------2/42----|
B|------------------|---------------------|------2---3/5----3--|------2/42----|
G|--2---4---6---6---|--7---7---7----------|--2---2---2/4----2--|---------------|
D|--2---4---6---6---|--7---7---7---7-----|--2-----------------|---------------|
A|--0---2---4---4---|--5---5---5---5-----|--0-----------------|---------------|
E|------------------|---------------------|--------------------|---------------|

.q q q ete e q q e er q .q s .e et.h e e q


e|------------------|---------------------|--------------------|------2/42----|
B|------------------|---------------------|------2---3/5----3--|------2/42----|
G|--2---4---6---6---|--7---7---7----------|--2---2---2/4----2--|---------------|
D|--2---4---6---6---|--7---7---7---7-----|--2-----------------|---------------|
A|--0---2---4---4---|--5---5---5---5-----|--0-----------------|---------------|
E|------------------|---------------------|--------------------|---------------|

.q q q ete e q q e er q .q s .e et.h e e q


e|------------------|---------------------|--------------------|------2/42----|
B|------------------|---------------------|------2---3/5----3--|------2/42----|
G|--2---4---6---6---|--7---7---7----------|--2---2---2/4----2--|---------------|
D|--2---4---6---6---|--7---7---7---7-----|--2-----------------|---------------|
A|--0---2---4---4---|--5---5---5---5-----|--0-----------------|---------------|
E|------------------|---------------------|--------------------|---------------|

.q q q ete e q q e er q .q s .e et.h e e q


e|------------------|---------------------|--------------------|------2/42----|
B|------------------|---------------------|------2---3/5----3--|------2/42----|
G|--2---4---6---6---|--7---7---7----------|--2---2---2/4----2--|---------------|
D|--2---4---6---6---|--7---7---7---7-----|--2-----------------|---------------|
A|--0---2---4---4---|--5---5---5---5-----|--0-----------------|---------------|
E|------------------|---------------------|--------------------|---------------|

Outro

.q q q ete e e q qr


e|------------------|-------------------|
B|------------------|-------------------|
G|--2---4---6---6---|--7---7---7--------|
D|--2---4---6---6---|--7---7---7--------|
A|--0---2---4---4---|--5---5---5--------|
E|------------------|-------------------|
------------------------------------------------------------------------------------------------
------------------------------------------------------------------------------------------------

Guitar II (Billy Jones)

Intro (Clean)

wr .hr er s s q .q s .e et.h s s q .q s .e et.h


e|---------------|----------------|--------------------|---------------|--------------------|
B|---------------|----------------|------2---3/5----3--|---------------|------2---3/5----3--|
G|---------------|---------2---2--|--2---2---2/4----2--|--------2---2--|--2---2---2/4----2--|
D|---------------|---------2---2--|--2-----------------|--------2---2--|--2-----------------|
A|---------------|---------0---0--|--0-----------------|--------0---0--|--0-----------------|
E|---------------|----------------|--------------------|---------------|--------------------|

e e q q .q s .e et.h s s q .q s .e et.h e e q


e|------2/42----|--------------------|---------------|--------------------|------2/42----|
B|------2/42----|------2---3/5----3--|---------------|------2---3/5----3--|------2/42----|
G|---------------|--2---2---2/4----2--|--------2---2--|--2---2---2/4----2--|---------------|
D|---------------|--2-----------------|--------2---2--|--2-----------------|---------------|
A|---------------|--0-----------------|--------0---0--|--0-----------------|---------------|
E|---------------|--------------------|---------------|--------------------|---------------|

q .q s .e et.h e e q q .q s .e et.h e e q


e|--------------------|------2/42----|--------------------|------2/42----|
B|------2---3/5----3--|------2/42----|------2---3/5----3--|------2/42----|
G|--2---2---2/4----2--|---------------|--2---2---2/4----2--|---------------|
D|--2-----------------|---------------|--2-----------------|---------------|
A|--0-----------------|---------------|--0-----------------|---------------|
E|--------------------|---------------|--------------------|---------------|

.q q q ete e q q e er


e|------------------|---------------------|
B|------------------|---------------------|
G|--2---4---6---6---|--7---7---7----------|
D|--2---4---6---6---|--7---7---7---7-----|
A|--0---2---4---4---|--5---5---5---5-----|
E|------------------|---------------------|

1st Verse

q q q s s e q q q s s e q q q s s e q q q s s e


e|-----------------------|-----------------------|-----------------------|-----------------------|
B|-----------------------|-----------------------|-----------------------|-----------------------|
G|-----------------------|-----------------------|-----------------------|-----------------------|
D|--2---4---2---------2--|-----------------------|--2---4---2---------2--|-----------------------|
A|--0---0---0---3h4---0--|--2---4---2---------2--|--0---0---0---3h4---0--|--2---4---2---------2--|
E|-----------------------|--0---0---0---3h4---0--|-----------------------|--0---0---0---3h4---0--|

q q s s e s s e q q s s e s s e q q q q er e e e e e e e


e|----------------------------|----------------------------|--------------|-------------------------|
B|----------------------------|----------------------------|--------------|-------------------------|
G|--5--5----------------------|----------------------------|--7--7--7--7--|----8--8--8--8--8--8--9--|
D|--5--5---------5---7p5------|--5--5----------------------|--7--7--7--7--|----8--8--8--8--8--8--9--|
A|--3--3---5/7-------------7--|--5--5---------5---7p5------|--5--5--5--5--|----6--6--6--6--6--6--7--|
E|----------------------------|--3--3---5/7-------------7--|--------------|-------------------------|

q q q s s e q q q s s e q q q s s e q q q s s e


e|-----------------------|-----------------------|-----------------------|-----------------------|
B|-----------------------|-----------------------|-----------------------|-----------------------|
G|-----------------------|-----------------------|-----------------------|--2---4---2---------2--|
D|--2---4---2---------2--|-----------------------|--2---4---2---------2--|--0---0---0---3h4---0--|
A|--0---0---0---3h4---0--|--2---4---2---------2--|--0---0---0---3h4---0--|-----------------------|
E|-----------------------|--0---0---0---3h4---0--|-----------------------|-----------------------|

q q q s s e q q q s s e


e|-----------------------|-----------------------|
B|-----------------------|-----------------------|
G|-----------------------|-----------------------|
D|--2---4---2---------2--|-----------------------|
A|--0---0---0---3h4---0--|--2---4---2---------2--|
E|-----------------------|--0---0---0---3h4---0--|

1st Prechorus

q e e er .q e e er htqte e e er .q e e er .e sr s sr q


e|------------------|---------------|---------------|------------2-------4-------5--|
B|--2---3/5------3--|--3/5-------3--|--3/5-------3--|--3/5--------------------------|
G|--3---2/4------2--|--2/4-------2--|--2/4-------2--|--2/4-------2-------4-------6--|
D|--0------------0--|------------0--|---------------|-------------------------------|
A|------------------|---------------|---------------|-------------------------------|
E|------------------|---------------|---------------|-------------------------------|

1st Chorus

.q q q ete e q q e er q .q s .e et.h e e q


e|------------------|---------------------|--------------------|------2/42----|
B|------------------|---------------------|------2---3/5----3--|------2/42----|
G|--2---4---6---6---|--7---7---7----------|--2---2---2/4----2--|---------------|
D|--2---4---6---6---|--7---7---7---7-----|--2-----------------|---------------|
A|--0---2---4---4---|--5---5---5---5-----|--0-----------------|---------------|
E|------------------|---------------------|--------------------|---------------|

.q q q ete e q q e er q .q s .e et.h e e q


e|------------------|---------------------|--------------------|------2/42----|
B|------------------|---------------------|------2---3/5----3--|------2/42----|
G|--2---4---6---6---|--7---7---7----------|--2---2---2/4----2--|---------------|
D|--2---4---6---6---|--7---7---7---7-----|--2-----------------|---------------|
A|--0---2---4---4---|--5---5---5---5-----|--0-----------------|---------------|
E|------------------|---------------------|--------------------|---------------|

2nd Verse

q q q s s e q q q s s e q q q s s e q q q s s e


e|-----------------------|-----------------------|-----------------------|-----------------------|
B|-----------------------|-----------------------|-----------------------|-----------------------|
G|-----------------------|-----------------------|-----------------------|-----------------------|
D|--2---4---2---------2--|-----------------------|--2---4---2---------2--|-----------------------|
A|--0---0---0---3h4---0--|--2---4---2---------2--|--0---0---0---3h4---0--|--2---4---2---------2--|
E|-----------------------|--0---0---0---3h4---0--|-----------------------|--0---0---0---3h4---0--|

q q s s e s s e q q s s e s s e q q q q er e e e e e e e


e|----------------------------|----------------------------|--------------|-------------------------|
B|----------------------------|----------------------------|--------------|-------------------------|
G|--5--5----------------------|----------------------------|--7--7--7--7--|----8--8--8--8--8--8--9--|
D|--5--5---------5---7p5------|--5--5----------------------|--7--7--7--7--|----8--8--8--8--8--8--9--|
A|--3--3---5/7-------------7--|--5--5---------5---7p5------|--5--5--5--5--|----6--6--6--6--6--6--7--|
E|----------------------------|--3--3---5/7-------------7--|--------------|-------------------------|

q q q s s e q q q s s e q q q s s e q q q s s e


e|-----------------------|-----------------------|-----------------------|-----------------------|
B|-----------------------|-----------------------|-----------------------|-----------------------|
G|-----------------------|-----------------------|-----------------------|--2---4---2---------2--|
D|--2---4---2---------2--|-----------------------|--2---4---2---------2--|--0---0---0---3h4---0--|
A|--0---0---0---3h4---0--|--2---4---2---------2--|--0---0---0---3h4---0--|-----------------------|
E|-----------------------|--0---0---0---3h4---0--|-----------------------|-----------------------|

q q q s s e q q q s s e


e|-----------------------|-----------------------|
B|-----------------------|-----------------------|
G|-----------------------|-----------------------|
D|--2---4---2---------2--|-----------------------|
A|--0---0---0---3h4---0--|--2---4---2---------2--|
E|-----------------------|--0---0---0---3h4---0--|

2nd Prechorus

q e e er .q e e er htqte e e er .q e e er .e sr s sr q


e|------------------|---------------|---------------|------------2-------4-------5--|
B|--2---3/5------3--|--3/5-------3--|--3/5-------3--|--3/5--------------------------|
G|--3---2/4------2--|--2/4-------2--|--2/4-------2--|--2/4-------2-------4-------6--|
D|--0------------0--|------------0--|---------------|-------------------------------|
A|------------------|---------------|---------------|-------------------------------|
E|------------------|---------------|---------------|-------------------------------|

2nd Chorus

.q q q ete e q q e er q .q s .e et.h e e q


e|------------------|---------------------|--------------------|------2/42----|
B|------------------|---------------------|------2---3/5----3--|------2/42----|
G|--2---4---6---6---|--7---7---7----------|--2---2---2/4----2--|---------------|
D|--2---4---6---6---|--7---7---7---7-----|--2-----------------|---------------|
A|--0---2---4---4---|--5---5---5---5-----|--0-----------------|---------------|
E|------------------|---------------------|--------------------|---------------|

.q q q ete e q q e er e s s e s s e s s e s s


e|------------------|---------------------|--------------------------------------|
B|------------------|---------------------|--------------------------------------|
G|--2---4---6---6---|--7---7---7----------|--------------------------------------|
D|--2---4---6---6---|--7---7---7---7-----|--------------------------------------|
A|--0---2---4---4---|--5---5---5---5-----|--2--2--2--2--2--2--2--2--2--2--2--2--|
E|------------------|---------------------|--0--0--0--0--0--0--0--0--0--0--0--0--|

e s s e s s e s s e s s


e|--------------------------------------|
B|--------------------------------------|
G|--------------------------------------|
D|--------------------------------------|
A|--2--2--2--2--2--2--2--2--2--2--2--2--|
E|--0--0--0--0--0--0--0--0--0--0--0--0--|

Solo

.q .q q e s s e s s e s s q e s s e s s e s s e s s


e|----------------|--------------------------------|--------------------------------------|
B|----------------|--------------------------------|--------------------------------------|
G|---9----5-------|--------------------------------|--------------------------------------|
D|---9----5----5--|--5--5--5--5--5--5--5--5--5--5--|--------------------------------------|
A|---7----3----5--|--5--5--5--5--5--5--5--5--5--5--|--2--2--2--2--2--2--2--2--2--2--2--2--|
E|-------------3--|--3--3--3--3--3--3--3--3--3--3--|--0--0--0--0--0--0--0--0--0--0--0--0--|

e s s e s s e s s e s s .q .q qth q q


e|--------------------------------------|-----------------|-------------|
B|--------------------------------------|-----------------|-------------|
G|--------------------------------------|--5-----------7--|--2----2-----|
D|--------------------------------------|--5-----5-----7--|--2----2-----|
A|--2--2--2--2--2--2--2--2--2--2--2--2--|--3-----5-----5--|--0----0-----|
E|--0--0--0--0--0--0--0--0--0--0--0--0--|--------3--------|-------------|

e s s e s s e s s e s s e s s e s s e s s e s s


e|--------------------------------------|--------------------------------------|
B|--------------------------------------|--------------------------------------|
G|--------------------------------------|--------------------------------------|
D|--------------------------------------|--------------------------------------|
A|--2--2--2--2--2--2--2--2--2--2--2--2--|--2--2--2--2--2--2--2--2--2--2--2--2--|
E|--0--0--0--0--0--0--0--0--0--0--0--0--|--0--0--0--0--0--0--0--0--0--0--0--0--|

.q .q q e s s e s s e s s q e s s e s s e s s e s s


e|----------------|--------------------------------|--------------------------------------|
B|----------------|--------------------------------|--------------------------------------|
G|---9----5-------|--------------------------------|--------------------------------------|
D|---9----5----5--|--5--5--5--5--5--5--5--5--5--5--|--------------------------------------|
A|---7----3----5--|--5--5--5--5--5--5--5--5--5--5--|--2--2--2--2--2--2--2--2--2--2--2--2--|
E|-------------3--|--3--3--3--3--3--3--3--3--3--3--|--0--0--0--0--0--0--0--0--0--0--0--0--|

e s s e s s e s s e s s .q .q qth q q


e|--------------------------------------|-----------------|-------------|
B|--------------------------------------|-----------------|-------------|
G|--------------------------------------|--5-----------7--|--2----2-----|
D|--------------------------------------|--5-----5-----7--|--2----2-----|
A|--2--2--2--2--2--2--2--2--2--2--2--2--|--3-----5-----5--|--0----0-----|
E|--0--0--0--0--0--0--0--0--0--0--0--0--|--------3--------|-------------|

Intro reprise

wr wr wr wr


e|-------------|---------------|--------------|---------------|
B|-------------|---------------|--------------|---------------|
G|-------------|---------------|--------------|---------------|
D|-------------|---------------|--------------|---------------|
A|-------------|---------------|--------------|---------------|
E|-------------|---------------|--------------|---------------|

q .q s .e et.h e e q q .q s .e et.h e e q


e|--------------------|------2/42----|--------------------|------2/42----|
B|------2---3/5----3--|------2/42----|------2---3/5----3--|------2/42----|
G|--2---2---2/4----2--|---------------|--2---2---2/4----2--|---------------|
D|--2-----------------|---------------|--2-----------------|---------------|
A|--0-----------------|---------------|--0-----------------|---------------|
E|--------------------|---------------|--------------------|---------------|

.q q q ete e q q e er


e|------------------|---------------------|
B|------------------|---------------------|
G|--2---4---6---6---|--7---7---7----------|
D|--2---4---6---6---|--7---7---7---7-----|
A|--0---2---4---4---|--5---5---5---5-----|
E|------------------|---------------------|

3rd Verse

q q q s s e q q q s s e q q q s s e q q q s s e


e|-----------------------|-----------------------|-----------------------|-----------------------|
B|-----------------------|-----------------------|-----------------------|-----------------------|
G|-----------------------|-----------------------|-----------------------|--2---4---2---------2--|
D|--2---4---2---------2--|-----------------------|--2---4---2---------2--|--0---0---0---3h4---0--|
A|--0---0---0---3h4---0--|--2---4---2---------2--|--0---0---0---3h4---0--|-----------------------|
E|-----------------------|--0---0---0---3h4---0--|-----------------------|-----------------------|

q q q s s e q q q s s e


e|-----------------------|-----------------------|
B|-----------------------|-----------------------|
G|-----------------------|-----------------------|
D|--2---4---2---------2--|-----------------------|
A|--0---0---0---3h4---0--|--2---4---2---------2--|
E|-----------------------|--0---0---0---3h4---0--|

3rd Prechorus

q e e er .q e e er htqte e e er .q e e er .e sr s sr q


e|------------------|---------------|---------------|------------2-------4-------5--|
B|--2---3/5------3--|--3/5-------3--|--3/5-------3--|--3/5--------------------------|
G|--3---2/4------2--|--2/4-------2--|--2/4-------2--|--2/4-------2-------4-------6--|
D|--0------------0--|------------0--|---------------|-------------------------------|
A|------------------|---------------|---------------|-------------------------------|
E|------------------|---------------|---------------|-------------------------------|

3rd Chorus

.q q q ete e q q e er q .q s .e et.h e e q


e|------------------|---------------------|--------------------|------2/42----|
B|------------------|---------------------|------2---3/5----3--|------2/42----|
G|--2---4---6---6---|--7---7---7----------|--2---2---2/4----2--|---------------|
D|--2---4---6---6---|--7---7---7---7-----|--2-----------------|---------------|
A|--0---2---4---4---|--5---5---5---5-----|--0-----------------|---------------|
E|------------------|---------------------|--------------------|---------------|

.q q q ete e q q e er q .q s .e et.h e e q


e|------------------|---------------------|--------------------|------2/42----|
B|------------------|---------------------|------2---3/5----3--|------2/42----|
G|--2---4---6---6---|--7---7---7----------|--2---2---2/4----2--|---------------|
D|--2---4---6---6---|--7---7---7---7-----|--2-----------------|---------------|
A|--0---2---4---4---|--5---5---5---5-----|--0-----------------|---------------|
E|------------------|---------------------|--------------------|---------------|

.q q q ete e q q e er q .q s .e et.h e e q


e|------------------|---------------------|--------------------|------2/42----|
B|------------------|---------------------|------2---3/5----3--|------2/42----|
G|--2---4---6---6---|--7---7---7----------|--2---2---2/4----2--|---------------|
D|--2---4---6---6---|--7---7---7---7-----|--2-----------------|---------------|
A|--0---2---4---4---|--5---5---5---5-----|--0-----------------|---------------|
E|------------------|---------------------|--------------------|---------------|

.q q q ete e q q e er q .q s .e et.h e e q


e|------------------|---------------------|--------------------|------2/42----|
B|------------------|---------------------|------2---3/5----3--|------2/42----|
G|--2---4---6---6---|--7---7---7----------|--2---2---2/4----2--|---------------|
D|--2---4---6---6---|--7---7---7---7-----|--2-----------------|---------------|
A|--0---2---4---4---|--5---5---5---5-----|--0-----------------|---------------|
E|------------------|---------------------|--------------------|---------------|

Outro

.q q q ete e q q qr


e|--5---7---9----9----|--10----10----10-------|
B|--5---7---9----9----|--10----10----10-------|
G|--6---8---10---10---|--11----11----11-------|
D|--7---9---11---11---|--12----12----12-------|
A|--7---9---11---11---|--12----12----12-------|
E|--------------------|-----------------------|
------------------------------------------------------------------------------------------------
------------------------------------------------------------------------------------------------

Guitar III(Freddie Salem)

Intro (Over Driven) palm mute through out

[ 3 ] [ 3 ] [ 3 ] [ 3 ] [ 3 ] [ 3 ]
e .e .e .e e .e .e .e e .e .e .e e .e .e .e e .e .e .e e .e .e .e


e|--------------------------|--------------------------|--------------------------|
B|--------------------------|--------------------------|--------------------------|
G|--------------------------|--------------------------|--------------------------|
D|--2--2--2--2--2--2--2--2--|--2--2--2--2--2--2--2--2--|--2--2--2--2--2--2--2--2--|
A|--0--0--0--0--0--0--0--0--|--0--0--0--0--0--0--0--0--|--0--0--0--0--0--0--0--0--|
E|--------------------------|--------------------------|--------------------------|

[ 3 ] [ 3 ] [ 3 ] [ 3 ] [ 3 ] [ 3 ]
e .e .e .e e .e .e .e e .e .e .e e .e .e .e e .e .e .e e .e .e .e


e|--------------------------|--------------------------|--------------------------|
B|--------------------------|--------------------------|--------------------------|
G|--------------------------|--------------------------|--------------------------|
D|--2--2--2--2--2--2--2--2--|--2--2--2--2--2--2--2--2--|--2--2--2--2--2--2--2--2--|
A|--0--0--0--0--0--0--0--0--|--0--0--0--0--0--0--0--0--|--0--0--0--0--0--0--0--0--|
E|--------------------------|--------------------------|--------------------------|

[ 3 ] [ 3 ] [ 3 ] [ 3 ] [ 3 ] [ 3 ]
e .e .e .e e .e .e .e e .e .e .e e .e .e .e e .e .e .e e .e .e .e


e|--------------------------|--------------------------|--------------------------|
B|--------------------------|--------------------------|--------------------------|
G|--------------------------|--------------------------|--------------------------|
D|--2--2--2--2--2--2--2--2--|--2--2--2--2--2--2--2--2--|--2--2--2--2--2--2--2--2--|
A|--0--0--0--0--0--0--0--0--|--0--0--0--0--0--0--0--0--|--0--0--0--0--0--0--0--0--|
E|--------------------------|--------------------------|--------------------------|

[ 3 ] [ 3 ] [ 3 ] [ 3 ] [ 3 ] [ 3 ]
e .e .e .e e .e .e .e e .e .e .e e .e .e .e e .e .e .e e .e .e .e


e|--------------------------|--------------------------|--------------------------|
B|--------------------------|--------------------------|--------------------------|
G|--------------------------|--------------------------|--------------------------|
D|--2--2--2--2--2--2--2--2--|--2--2--2--2--2--2--2--2--|--2--2--2--2--2--2--2--2--|
A|--0--0--0--0--0--0--0--0--|--0--0--0--0--0--0--0--0--|--0--0--0--0--0--0--0--0--|
E|--------------------------|--------------------------|--------------------------|

[ 3 ] [ 3 ] [ 3 ] [ 3 ]
e .e .e .e e .e .e .e e .e .e .e e .e .e .e .q q q ete e q q qr


e|--------------------------|--------------------------|------------------|-----------------|
B|--------------------------|--------------------------|------------------|-----------------|
G|--------------------------|--------------------------|--2---4---6---6---|--7---7---7------|
D|--2--2--2--2--2--2--2--2--|--2--2--2--2--2--2--2--2--|--2---4---6---6---|--7---7---7------|
A|--0--0--0--0--0--0--0--0--|--0--0--0--0--0--0--0--0--|--0---2---4---4---|--5---5---5------|
E|--------------------------|--------------------------|------------------|-----------------|

1st Verse

e e e e q e e e e e e q e e e e e e q e e e e e e q e e


e|-----------------------|-----------------------|-----------------------|-----------------------|
B|-----------------------|-----------------------|-----------------------|-----------------------|
G|-----------------------|-----------------------|-----------------------|-----------------------|
D|--2--2--4--4--2--4--2--|-----------------------|--2--2--4--4--2--4--2--|-----------------------|
A|--0--0--0--0--0--0--0--|--2--2--4--4--2--4--2--|--0--0--0--0--0--0--0--|--2--2--4--4--2--4--2--|
E|-----------------------|--0--0--0--0--0--0--0--|-----------------------|--0--0--0--0--0--0--0--|

q .h q .h q q q q er e e e e e e e


e|---------------|----------------|--------------|---------------------------|
B|---------------|----------------|--------------|---------------------------|
G|--5------5-----|----------------|--7--7--7--7--|------8--8--8--8--8--8--9--|
D|--5------5-----|--5-------5-----|--7--7--7--7--|------8--8--8--8--8--8--9--|
A|--3------3-----|--5-------5-----|--5--5--5--5--|------6--6--6--6--6--6--7--|
E|---------------|--3-------3-----|--------------|---------------------------|

e e e e q e e e e e e q e e e e e e q e e e e e e q e e


e|-----------------------|-----------------------|-----------------------|-----------------------|
B|-----------------------|-----------------------|-----------------------|-----------------------|
G|-----------------------|-----------------------|-----------------------|--2--2--4--4--2--4--2--|
D|--2--2--4--4--2--4--2--|-----------------------|--2--2--4--4--2--4--2--|--0--0--0--0--0--0--0--|
A|--0--0--0--0--0--0--0--|--2--2--4--4--2--4--2--|--0--0--0--0--0--0--0--|-----------------------|
E|-----------------------|--0--0--0--0--0--0--0--|-----------------------|-----------------------|

e e e e q e e e e e e q e s s


e|-----------------------|--------------------2---2--|
B|-----------------------|--------------------3---3--|
G|-----------------------|--------------------2---2--|
D|--2--2--4--4--2--4--2--|--------------------0---0--|
A|--0--0--0--0--0--0--0--|--2--2--4--4--2--4---------|
E|-----------------------|--0--0--0--0--0--0---------|

1st Prechorus

wt.hte s s wt.hte s s .q q q ete e q h


e|----2----|------------2----2--|----2----|------------2----2--|-----------------|-------------|
B|----3----|------------3----3--|----3----|------------3----3--|-----------------|-------------|
G|----2----|------------2----2--|----2----|------------2----2--|--2---4---6---6--|--7---7---7--|
D|----0----|------------0----0--|----0----|------------0----0--|--2---4---6---6--|--7---7---7--|
A|---------|--------------------|---------|--------------------|--0---2---4---4--|--5---5---5--|
E|---------|--------------------|---------|--------------------|-----------------|-------------|

1st Chorus

[ 3 ] [ 3 ] [ 3 ] [ 3 ]
e .e .e .e e .e .e .e e .e .e .e e .e .e .e .q q q ete e q q qr


e|--------------------------|--------------------------|------------------|-----------------|
B|--------------------------|--------------------------|------------------|-----------------|
G|--------------------------|--------------------------|--2---4---6---6---|--7---7---7------|
D|--2--2--2--2--2--2--2--2--|--2--2--2--2--2--2--2--2--|--2---4---6---6---|--7---7---7------|
A|--0--0--0--0--0--0--0--0--|--0--0--0--0--0--0--0--0--|--0---2---4---4---|--5---5---5------|
E|--------------------------|--------------------------|------------------|-----------------|

[ 3 ] [ 3 ] [ 3 ] [ 3 ]
e .e .e .e e .e .e .e e .e .e .e e .e .e .e


e|--------------------------|--------------------------|
B|--------------------------|--------------------------|
G|--------------------------|--------------------------|
D|--2--2--2--2--2--2--2--2--|--2--2--2--2--2--2--2--2--|
A|--0--0--0--0--0--0--0--0--|--0--0--0--0--0--0--0--0--|
E|--------------------------|--------------------------|

2nd Verse

e e e e q e e e e e e q e e e e e e q e e e e e e q e e


e|-----------------------|-----------------------|-----------------------|-----------------------|
B|-----------------------|-----------------------|-----------------------|-----------------------|
G|-----------------------|-----------------------|-----------------------|-----------------------|
D|--2--2--4--4--2--4--2--|-----------------------|--2--2--4--4--2--4--2--|-----------------------|
A|--0--0--0--0--0--0--0--|--2--2--4--4--2--4--2--|--0--0--0--0--0--0--0--|--2--2--4--4--2--4--2--|
E|-----------------------|--0--0--0--0--0--0--0--|-----------------------|--0--0--0--0--0--0--0--|

q .h q .h q q q q er e e e e e e e


e|---------------|----------------|--------------|---------------------------|
B|---------------|----------------|--------------|---------------------------|
G|--5------5-----|----------------|--7--7--7--7--|------8--8--8--8--8--8--9--|
D|--5------5-----|--5-------5-----|--7--7--7--7--|------8--8--8--8--8--8--9--|
A|--3------3-----|--5-------5-----|--5--5--5--5--|------6--6--6--6--6--6--7--|
E|---------------|--3-------3-----|--------------|---------------------------|

e e e e q e e e e e e q e e e e e e q e e e e e e q e e


e|-----------------------|-----------------------|-----------------------|-----------------------|
B|-----------------------|-----------------------|-----------------------|-----------------------|
G|-----------------------|-----------------------|-----------------------|--2--2--4--4--2--4--2--|
D|--2--2--4--4--2--4--2--|-----------------------|--2--2--4--4--2--4--2--|--0--0--0--0--0--0--0--|
A|--0--0--0--0--0--0--0--|--2--2--4--4--2--4--2--|--0--0--0--0--0--0--0--|-----------------------|
E|-----------------------|--0--0--0--0--0--0--0--|-----------------------|-----------------------|

e e e e q e e e e e e q e s s


e|-----------------------|--------------------2---2--|
B|-----------------------|--------------------3---3--|
G|-----------------------|--------------------2---2--|
D|--2--2--4--4--2--4--2--|--------------------0---0--|
A|--0--0--0--0--0--0--0--|--2--2--4--4--2--4---------|
E|-----------------------|--0--0--0--0--0--0---------|

2nd Prechorus

wt.hte s s wt.hte s s .q q q ete e q h


e|----2----|------------2----2--|----2----|------------2----2--|-----------------|-------------|
B|----3----|------------3----3--|----3----|------------3----3--|-----------------|-------------|
G|----2----|------------2----2--|----2----|------------2----2--|--2---4---6---6--|--7---7---7--|
D|----0----|------------0----0--|----0----|------------0----0--|--2---4---6---6--|--7---7---7--|
A|---------|--------------------|---------|--------------------|--0---2---4---4--|--5---5---5--|
E|---------|--------------------|---------|--------------------|-----------------|-------------|

2nd Chorus

[ 3 ] [ 3 ] [ 3 ] [ 3 ]
e .e .e .e e .e .e .e e .e .e .e e .e .e .e .q q

To play the most songs, including Wishing Wells by Outlaws by ukulele, the most important basic ukulele chords to learn are C chord, D chord, G chord, and Em chord.
These set you up to play a many of songs, and each of them is easy to master.

Leave a Reply

Your email address will not be published.