World by Bee Gees Ukulele Chords

Posted on

If you are looking for World ukulele chords, you’ve come to the right site.
You can play versatile instrument World using ukulele or guitar.
This song by Bee Gees can also be played by that instruments.
=

World chords has rhythm and included in Mrs Gillespies Refrigerator (2018) album.
You can also get other musical style, including jazz ukulele chords, country music ukulele chords, pop ukulele chords, world music ukulele chords, and rock ukulele chords here.

World by Bee Gees Ukulele Chords

Intro: Piano


[/] [/] [/] [////] [//]


E-2-----------------------------------------------2----------|
B-3-----------------------------------------------3----------|
G-2-----------------------------------------------2----------|
D-0--0-0-0-0-0-0-0-0-0-0-0-0-0-0-0-0-0-0-0-0-0-0--0----------|
A-0-----------------------------------------------0----------|
E-x-----------------------------------------------x----------|

Now I’ve found, that the world is round,
And of course, it rains, ev-‘ry day.
Liv-ing to-mor-row.


E------17>(19)>17------------------------------|
B--------------------10h8------------------------|
G-------------------------9h7--------------------|
D-----------------------------9------------------|
A------------------------------------------------|
E------------------------------------------------|

Where in the world will I be? To-mor-row.
How far am I a-ble to see–e?[/][/][/][/]
Or am I need-ed here? // // //
Now I’ve found, that the world is round,
And of course, it rains, ev-‘ry day.
If I re-mem-ber,


E------17>(19)>17------------------|
B--------------------10h8------------|
G-------------------------9h7--------|
D-----------------------------9------|
A------------------------------------|
E------------------------------------|

All of the things I have done. I re-mem-ber,
All of the times I’ve gone wro – ong[/].[/][/][/]
Why do they keep me[/] [/]he[/]re[/]?[/][/]
Now I’ve found, that the world is round.
And of course, it rains, ev-‘ry day.
And now I’ve found, that the world is round,
And of course, it rains, ev-‘ry day. (And now) R&F

Chord diagrams:
x00232 002220 355433 224232 xx4432 022100 002210 244222
002223 133211
E,B,G,D,A,E guitar strings, / number of times to
play chord, >( )> bend to note in ( ) and release,
hold bend, h hammer on, R&F repeat and fade.
Tabbed from: Bee Gees Number ones.

To play the this songs, including World by Bee Gees by ukulele, the most crucial basic ukulele chords to learn are C chord, D chord, G chord, and Em chord.
These set you up to play a many of songs, and each of them is easy to learn.

Gravatar Image
Like to play Ukulele and Sudoku Game

Leave a Reply

Your email address will not be published. Required fields are marked *